  0
SECTION
  2
HEADER
  9
$ACADVER
  1
AC1014
  9
$ACADMAINTVER
 70
     9
  9
$DWGCODEPAGE
  3
ASCII
  9
$INSBASE
 10
0.0
 20
0.0
 30
0.0
  9
$EXTMIN
 10
1.000000000000000E+20
 20
1.000000000000000E+20
 30
1.000000000000000E+20
  9
$EXTMAX
 10
-1.000000000000000E+20
 20
-1.000000000000000E+20
 30
-1.000000000000000E+20
  9
$LIMMIN
 10
0.0
 20
0.0
  9
$LIMMAX
 10
12.0
 20
9.0
  9
$ORTHOMODE
 70
     0
  9
$REGENMODE
 70
     1
  9
$FILLMODE
 70
     1
  9
$QTEXTMODE
 70
     0
  9
$MIRRTEXT
 70
     1
  9
$DRAGMODE
 70
     2
  9
$LTSCALE
 40
1.0
  9
$OSMODE
 70
    37
  9
$ATTMODE
 70
     1
  9
$TEXTSIZE
 40
0.2
  9
$TRACEWID
 40
0.05
  9
$TEXTSTYLE
  7
STANDARD
  9
$CLAYER
  8
0
  9
$CELTYPE
  6
BYLAYER
  9
$CECOLOR
 62
   256
  9
$CELTSCALE
 40
1.0
  9
$DELOBJ
 70
     1
  9
$DISPSILH
 70
     0
  9
$DIMSCALE
 40
1.0
  9
$DIMASZ
 40
0.18
  9
$DIMEXO
 40
0.0625
  9
$DIMDLI
 40
0.38
  9
$DIMRND
 40
0.0
  9
$DIMDLE
 40
0.0
  9
$DIMEXE
 40
0.18
  9
$DIMTP
 40
0.0
  9
$DIMTM
 40
0.0
  9
$DIMTXT
 40
0.18
  9
$DIMCEN
 40
0.09
  9
$DIMTSZ
 40
0.0
  9
$DIMTOL
 70
     0
  9
$DIMLIM
 70
     0
  9
$DIMTIH
 70
     1
  9
$DIMTOH
 70
     1
  9
$DIMSE1
 70
     0
  9
$DIMSE2
 70
     0
  9
$DIMTAD
 70
     0
  9
$DIMZIN
 70
     0
  9
$DIMBLK
  1

  9
$DIMASO
 70
     1
  9
$DIMSHO
 70
     1
  9
$DIMPOST
  1

  9
$DIMAPOST
  1

  9
$DIMALT
 70
     0
  9
$DIMALTD
 70
     2
  9
$DIMALTF
 40
25.4
  9
$DIMLFAC
 40
1.0
  9
$DIMTOFL
 70
     0
  9
$DIMTVP
 40
0.0
  9
$DIMTIX
 70
     0
  9
$DIMSOXD
 70
     0
  9
$DIMSAH
 70
     0
  9
$DIMBLK1
  1

  9
$DIMBLK2
  1

  9
$DIMSTYLE
  2
STANDARD
  9
$DIMCLRD
 70
     0
  9
$DIMCLRE
 70
     0
  9
$DIMCLRT
 70
     0
  9
$DIMTFAC
 40
1.0
  9
$DIMGAP
 40
0.09
  9
$DIMJUST
 70
     0
  9
$DIMSD1
 70
     0
  9
$DIMSD2
 70
     0
  9
$DIMTOLJ
 70
     1
  9
$DIMTZIN
 70
     0
  9
$DIMALTZ
 70
     0
  9
$DIMALTTZ
 70
     0
  9
$DIMFIT
 70
     3
  9
$DIMUPT
 70
     0
  9
$DIMUNIT
 70
     2
  9
$DIMDEC
 70
     4
  9
$DIMTDEC
 70
     4
  9
$DIMALTU
 70
     2
  9
$DIMALTTD
 70
     2
  9
$DIMTXSTY
  7
STANDARD
  9
$DIMAUNIT
 70
     0
  9
$LUNITS
 70
     2
  9
$LUPREC
 70
     4
  9
$SKETCHINC
 40
0.1
  9
$FILLETRAD
 40
0.5
  9
$AUNITS
 70
     0
  9
$AUPREC
 70
     0
  9
$MENU
  1
.
  9
$ELEVATION
 40
0.0
  9
$PELEVATION
 40
0.0
  9
$THICKNESS
 40
0.0
  9
$LIMCHECK
 70
     0
  9
$CHAMFERA
 40
0.5
  9
$CHAMFERB
 40
0.5
  9
$CHAMFERC
 40
1.0
  9
$CHAMFERD
 40
0.0
  9
$SKPOLY
 70
     0
  9
$TDCREATE
 40
2455408.482662037
  9
$TDUPDATE
 40
2455408.482662049
  9
$TDINDWG
 40
0.0000000116
  9
$TDUSRTIMER
 40
0.0000000116
  9
$USRTIMER
 70
     1
  9
$ANGBASE
 50
0.0
  9
$ANGDIR
 70
     0
  9
$PDMODE
 70
     0
  9
$PDSIZE
 40
0.0
  9
$PLINEWID
 40
0.0
  9
$COORDS
 70
     1
  9
$SPLFRAME
 70
     0
  9
$SPLINETYPE
 70
     6
  9
$SPLINESEGS
 70
     8
  9
$ATTDIA
 70
     0
  9
$ATTREQ
 70
     1
  9
$HANDLING
 70
     1
  9
$HANDSEED
  5
584
  9
$SURFTAB1
 70
     6
  9
$SURFTAB2
 70
     6
  9
$SURFTYPE
 70
     6
  9
$SURFU
 70
     6
  9
$SURFV
 70
     6
  9
$UCSNAME
  2

  9
$UCSORG
 10
0.0
 20
0.0
 30
0.0
  9
$UCSXDIR
 10
1.0
 20
0.0
 30
0.0
  9
$UCSYDIR
 10
0.0
 20
1.0
 30
0.0
  9
$PUCSNAME
  2

  9
$PUCSORG
 10
0.0
 20
0.0
 30
0.0
  9
$PUCSXDIR
 10
1.0
 20
0.0
 30
0.0
  9
$PUCSYDIR
 10
0.0
 20
1.0
 30
0.0
  9
$USERI1
 70
     0
  9
$USERI2
 70
     0
  9
$USERI3
 70
     0
  9
$USERI4
 70
     0
  9
$USERI5
 70
     0
  9
$USERR1
 40
0.0
  9
$USERR2
 40
0.0
  9
$USERR3
 40
0.0
  9
$USERR4
 40
0.0
  9
$USERR5
 40
0.0
  9
$WORLDVIEW
 70
     1
  9
$SHADEDGE
 70
     3
  9
$SHADEDIF
 70
    70
  9
$TILEMODE
 70
     1
  9
$MAXACTVP
 70
    64
  9
$PINSBASE
 10
0.0
 20
0.0
 30
0.0
  9
$PLIMCHECK
 70
     0
  9
$PEXTMIN
 10
1.000000000000000E+20
 20
1.000000000000000E+20
 30
1.000000000000000E+20
  9
$PEXTMAX
 10
-1.000000000000000E+20
 20
-1.000000000000000E+20
 30
-1.000000000000000E+20
  9
$PLIMMIN
 10
0.0
 20
0.0
  9
$PLIMMAX
 10
12.0
 20
9.0
  9
$UNITMODE
 70
     0
  9
$VISRETAIN
 70
     1
  9
$PLINEGEN
 70
     0
  9
$PSLTSCALE
 70
     1
  9
$TREEDEPTH
 70
  3020
  9
$PICKSTYLE
 70
     1
  9
$CMLSTYLE
  2
STANDARD
  9
$CMLJUST
 70
     0
  9
$CMLSCALE
 40
1.0
  9
$PROXYGRAPHICS
 70
     1
  9
$MEASUREMENT
 70
     0
  0
ENDSEC
  0
SECTION
  2
CLASSES
  0
CLASS
  1
ACDBDICTIONARYWDFLT
  2
AcDbDictionaryWithDefault
  3
ObjectDBX Classes
 90
        0
280
     0
281
     0
  0
CLASS
  1
VISUALSTYLE
  2
AcDbVisualStyle
  3
ObjectDBX Classes
 90
     4095
280
     0
281
     0
  0
CLASS
  1
XRECORD
  2
AcDbXrecord
  3
AutoCAD 2000
 90
        0
280
     0
281
     0
  0
CLASS
  1
LWPOLYLINE
  2
AcDbPolyline
  3
AutoCAD 2000
 90
        0
280
     0
281
     1
  0
CLASS
  1
HATCH
  2
AcDbHatch
  3
AutoCAD 2000
 90
        0
280
     0
281
     1
  0
CLASS
  1
ACDBPLACEHOLDER
  2
AcDbPlaceHolder
  3
ObjectDBX Classes
 90
        0
280
     0
281
     0
  0
CLASS
  1
LAYOUT
  2
AcDbLayout
  3
ObjectDBX Classes
 90
        0
280
     0
281
     0
  0
ENDSEC
  0
SECTION
  2
TABLES
  0
TABLE
  2
VPORT
  5
8
330
0
100
AcDbSymbolTable
 70
     1
  0
VPORT
  5
29
330
8
100
AcDbSymbolTableRecord
100
AcDbViewportTableRecord
  2
*ACTIVE
 70
     0
 10
0.0
 20
0.0
 11
1.0
 21
1.0
 12
0.0
 22
0.0
 13
0.0
 23
0.0
 14
0.5
 24
0.5
 15
0.5
 25
0.5
 16
0.0
 26
0.0
 36
1.0
 17
306.0
 27
396.0
 37
0.0
 40
792.0
 41
0.7727272727272727
 42
50.0
 43
0.0
 44
0.0
 50
0.0
 51
0.0
 71
     0
 72
   100
 73
     1
 74
     3
 75
     0
 76
     0
 77
     0
 78
     0
  0
ENDTAB
  0
TABLE
  2
LTYPE
  5
5
330
0
100
AcDbSymbolTable
 70
    24
  0
LTYPE
  5
14
330
5
100
AcDbSymbolTableRecord
100
AcDbLinetypeTableRecord
  2
BYBLOCK
 70
     0
  3

 72
    65
 73
     0
 40
0.0
  0
LTYPE
  5
15
330
5
100
AcDbSymbolTableRecord
100
AcDbLinetypeTableRecord
  2
BYLAYER
 70
     0
  3

 72
    65
 73
     0
 40
0.0
  0
LTYPE
  5
16
330
5
100
AcDbSymbolTableRecord
100
AcDbLinetypeTableRecord
  2
CONTINUOUS
 70
     0
  3
Solid line
 72
    65
 73
     0
 40
0.0
  0
LTYPE
  5
496
330
5
100
AcDbSymbolTableRecord
100
AcDbLinetypeTableRecord
  2
AI-LINETYPE-1
 70
     0
  3
Adobe Illustrator Linetype No. 1
 72
    65
 73
     4
 40
12.85175848007202
 49
7.010050296783447
 74
     0
 49
-2.33668327331543
 74
     0
 49
1.168341636657715
 74
     0
 49
-2.33668327331543
 74
     0
  0
LTYPE
  5
49F
330
5
100
AcDbSymbolTableRecord
100
AcDbLinetypeTableRecord
  2
AI-LINETYPE-2
 70
     0
  3
Adobe Illustrator Linetype No. 2
 72
    65
 73
     4
 40
12.85175848007202
 49
7.010050296783447
 74
     0
 49
-2.33668327331543
 74
     0
 49
1.168341636657715
 74
     0
 49
-2.33668327331543
 74
     0
  0
LTYPE
  5
4A8
330
5
100
AcDbSymbolTableRecord
100
AcDbLinetypeTableRecord
  2
AI-LINETYPE-3
 70
     0
  3
Adobe Illustrator Linetype No. 3
 72
    65
 73
     4
 40
12.85175848007202
 49
7.010050296783447
 74
     0
 49
-2.33668327331543
 74
     0
 49
1.168341636657715
 74
     0
 49
-2.33668327331543
 74
     0
  0
LTYPE
  5
4B1
330
5
100
AcDbSymbolTableRecord
100
AcDbLinetypeTableRecord
  2
AI-LINETYPE-4
 70
     0
  3
Adobe Illustrator Linetype No. 4
 72
    65
 73
     4
 40
12.85175848007202
 49
7.010050296783447
 74
     0
 49
-2.33668327331543
 74
     0
 49
1.168341636657715
 74
     0
 49
-2.33668327331543
 74
     0
  0
LTYPE
  5
4BA
330
5
100
AcDbSymbolTableRecord
100
AcDbLinetypeTableRecord
  2
AI-LINETYPE-5
 70
     0
  3
Adobe Illustrator Linetype No. 5
 72
    65
 73
     4
 40
12.85175848007202
 49
7.010050296783447
 74
     0
 49
-2.33668327331543
 74
     0
 49
1.168341636657715
 74
     0
 49
-2.33668327331543
 74
     0
  0
LTYPE
  5
4C3
330
5
100
AcDbSymbolTableRecord
100
AcDbLinetypeTableRecord
  2
AI-LINETYPE-6
 70
     0
  3
Adobe Illustrator Linetype No. 6
 72
    65
 73
     4
 40
12.85175848007202
 49
7.010050296783447
 74
     0
 49
-2.33668327331543
 74
     0
 49
1.168341636657715
 74
     0
 49
-2.33668327331543
 74
     0
  0
LTYPE
  5
4CC
330
5
100
AcDbSymbolTableRecord
100
AcDbLinetypeTableRecord
  2
AI-LINETYPE-7
 70
     0
  3
Adobe Illustrator Linetype No. 7
 72
    65
 73
     4
 40
12.85175848007202
 49
7.010050296783447
 74
     0
 49
-2.33668327331543
 74
     0
 49
1.168341636657715
 74
     0
 49
-2.33668327331543
 74
     0
  0
LTYPE
  5
4D5
330
5
100
AcDbSymbolTableRecord
100
AcDbLinetypeTableRecord
  2
AI-LINETYPE-8
 70
     0
  3
Adobe Illustrator Linetype No. 8
 72
    65
 73
     4
 40
12.85175848007202
 49
7.010050296783447
 74
     0
 49
-2.33668327331543
 74
     0
 49
1.168341636657715
 74
     0
 49
-2.33668327331543
 74
     0
  0
LTYPE
  5
4DE
330
5
100
AcDbSymbolTableRecord
100
AcDbLinetypeTableRecord
  2
AI-LINETYPE-9
 70
     0
  3
Adobe Illustrator Linetype No. 9
 72
    65
 73
     4
 40
12.85175848007202
 49
7.010050296783447
 74
     0
 49
-2.33668327331543
 74
     0
 49
1.168341636657715
 74
     0
 49
-2.33668327331543
 74
     0
  0
LTYPE
  5
4E7
330
5
100
AcDbSymbolTableRecord
100
AcDbLinetypeTableRecord
  2
AI-LINETYPE-10
 70
     0
  3
Adobe Illustrator Linetype No. 10
 72
    65
 73
     4
 40
12.85175848007202
 49
7.010050296783447
 74
     0
 49
-2.33668327331543
 74
     0
 49
1.168341636657715
 74
     0
 49
-2.33668327331543
 74
     0
  0
LTYPE
  5
4F0
330
5
100
AcDbSymbolTableRecord
100
AcDbLinetypeTableRecord
  2
AI-LINETYPE-11
 70
     0
  3
Adobe Illustrator Linetype No. 11
 72
    65
 73
     4
 40
12.85175848007202
 49
7.010050296783447
 74
     0
 49
-2.33668327331543
 74
     0
 49
1.168341636657715
 74
     0
 49
-2.33668327331543
 74
     0
  0
LTYPE
  5
4F9
330
5
100
AcDbSymbolTableRecord
100
AcDbLinetypeTableRecord
  2
AI-LINETYPE-12
 70
     0
  3
Adobe Illustrator Linetype No. 12
 72
    65
 73
     4
 40
12.85175848007202
 49
7.010050296783447
 74
     0
 49
-2.33668327331543
 74
     0
 49
1.168341636657715
 74
     0
 49
-2.33668327331543
 74
     0
  0
LTYPE
  5
502
330
5
100
AcDbSymbolTableRecord
100
AcDbLinetypeTableRecord
  2
AI-LINETYPE-13
 70
     0
  3
Adobe Illustrator Linetype No. 13
 72
    65
 73
     4
 40
12.85175848007202
 49
7.010050296783447
 74
     0
 49
-2.33668327331543
 74
     0
 49
1.168341636657715
 74
     0
 49
-2.33668327331543
 74
     0
  0
LTYPE
  5
50B
330
5
100
AcDbSymbolTableRecord
100
AcDbLinetypeTableRecord
  2
AI-LINETYPE-14
 70
     0
  3
Adobe Illustrator Linetype No. 14
 72
    65
 73
     4
 40
12.85175848007202
 49
7.010050296783447
 74
     0
 49
-2.33668327331543
 74
     0
 49
1.168341636657715
 74
     0
 49
-2.33668327331543
 74
     0
  0
LTYPE
  5
514
330
5
100
AcDbSymbolTableRecord
100
AcDbLinetypeTableRecord
  2
AI-LINETYPE-15
 70
     0
  3
Adobe Illustrator Linetype No. 15
 72
    65
 73
     4
 40
12.85175848007202
 49
7.010050296783447
 74
     0
 49
-2.33668327331543
 74
     0
 49
1.168341636657715
 74
     0
 49
-2.33668327331543
 74
     0
  0
LTYPE
  5
51D
330
5
100
AcDbSymbolTableRecord
100
AcDbLinetypeTableRecord
  2
AI-LINETYPE-16
 70
     0
  3
Adobe Illustrator Linetype No. 16
 72
    65
 73
     4
 40
12.85175848007202
 49
7.010050296783447
 74
     0
 49
-2.33668327331543
 74
     0
 49
1.168341636657715
 74
     0
 49
-2.33668327331543
 74
     0
  0
LTYPE
  5
526
330
5
100
AcDbSymbolTableRecord
100
AcDbLinetypeTableRecord
  2
AI-LINETYPE-17
 70
     0
  3
Adobe Illustrator Linetype No. 17
 72
    65
 73
     4
 40
12.85175848007202
 49
7.010050296783447
 74
     0
 49
-2.33668327331543
 74
     0
 49
1.168341636657715
 74
     0
 49
-2.33668327331543
 74
     0
  0
LTYPE
  5
535
330
5
100
AcDbSymbolTableRecord
100
AcDbLinetypeTableRecord
  2
AI-LINETYPE-18
 70
     0
  3
Adobe Illustrator Linetype No. 18
 72
    65
 73
     2
 40
9.346733331680298
 49
5.841708183288574
 74
     0
 49
-3.505025148391724
 74
     0
  0
LTYPE
  5
53E
330
5
100
AcDbSymbolTableRecord
100
AcDbLinetypeTableRecord
  2
AI-LINETYPE-19
 70
     0
  3
Adobe Illustrator Linetype No. 19
 72
    65
 73
     2
 40
9.346733331680298
 49
5.841708183288574
 74
     0
 49
-3.505025148391724
 74
     0
  0
LTYPE
  5
547
330
5
100
AcDbSymbolTableRecord
100
AcDbLinetypeTableRecord
  2
AI-LINETYPE-20
 70
     0
  3
Adobe Illustrator Linetype No. 20
 72
    65
 73
     2
 40
9.346733331680298
 49
5.841708183288574
 74
     0
 49
-3.505025148391724
 74
     0
  0
LTYPE
  5
550
330
5
100
AcDbSymbolTableRecord
100
AcDbLinetypeTableRecord
  2
AI-LINETYPE-21
 70
     0
  3
Adobe Illustrator Linetype No. 21
 72
    65
 73
     2
 40
9.346733331680298
 49
5.841708183288574
 74
     0
 49
-3.505025148391724
 74
     0
  0
LTYPE
  5
559
330
5
100
AcDbSymbolTableRecord
100
AcDbLinetypeTableRecord
  2
AI-LINETYPE-22
 70
     0
  3
Adobe Illustrator Linetype No. 22
 72
    65
 73
     2
 40
9.346733331680298
 49
5.841708183288574
 74
     0
 49
-3.505025148391724
 74
     0
  0
LTYPE
  5
562
330
5
100
AcDbSymbolTableRecord
100
AcDbLinetypeTableRecord
  2
AI-LINETYPE-23
 70
     0
  3
Adobe Illustrator Linetype No. 23
 72
    65
 73
     2
 40
9.346733331680298
 49
5.841708183288574
 74
     0
 49
-3.505025148391724
 74
     0
  0
ENDTAB
  0
TABLE
  2
LAYER
  5
2
330
0
100
AcDbSymbolTable
 70
     6
  0
LAYER
  5
10
330
2
100
AcDbSymbolTableRecord
100
AcDbLayerTableRecord
  2
0
 70
     0
 62
     7
  6
CONTINUOUS
  0
LAYER
  5
3B
330
2
100
AcDbSymbolTableRecord
100
AcDbLayerTableRecord
  2
MITOIT-MMEK0
 70
     0
 62
     7
  6
CONTINUOUS
  0
LAYER
  5
2E9
330
2
100
AcDbSymbolTableRecord
100
AcDbLayerTableRecord
  2
MUOTOV-VMEKO
 70
     0
 62
     7
  6
CONTINUOUS
  0
LAYER
  5
365
330
2
100
AcDbSymbolTableRecord
100
AcDbLayerTableRecord
  2
MUOTOV-VMEK0
 70
     0
 62
     7
  6
CONTINUOUS
  0
LAYER
  5
48D
330
2
100
AcDbSymbolTableRecord
100
AcDbLayerTableRecord
  2
KESKIV-VMEK0
 70
     0
 62
     7
  6
CONTINUOUS
  0
LAYER
  5
52C
330
2
100
AcDbSymbolTableRecord
100
AcDbLayerTableRecord
  2
NAKMUO-VMEK0
 70
     0
 62
     7
  6
CONTINUOUS
  0
ENDTAB
  0
TABLE
  2
STYLE
  5
3
330
0
100
AcDbSymbolTable
 70
     1
  0
STYLE
  5
11
330
3
100
AcDbSymbolTableRecord
100
AcDbTextStyleTableRecord
  2
STANDARD
 70
     0
 40
0.0
 41
1.0
 50
0.0
 71
     0
 42
0.2
  3
txt
  4

  0
ENDTAB
  0
TABLE
  2
VIEW
  5
6
330
0
100
AcDbSymbolTable
 70
     0
  0
ENDTAB
  0
TABLE
  2
UCS
  5
7
330
0
100
AcDbSymbolTable
 70
     0
  0
ENDTAB
  0
TABLE
  2
APPID
  5
9
330
0
100
AcDbSymbolTable
 70
     1
  0
APPID
  5
12
330
9
100
AcDbSymbolTableRecord
100
AcDbRegAppTableRecord
  2
ACAD
 70
     0
  0
ENDTAB
  0
TABLE
  2
DIMSTYLE
  5
A
330
0
100
AcDbSymbolTable
 70
     1
  0
DIMSTYLE
105
27
330
A
100
AcDbSymbolTableRecord
100
AcDbDimStyleTableRecord
  2
STANDARD
 70
     0
  3

  4

  5

  6

  7

 40
1.0
 41
0.18
 42
0.0625
 43
0.38
 44
0.18
 45
0.0
 46
0.0
 47
0.0
 48
0.0
140
0.18
141
0.09
142
0.0
143
25.4
144
1.0
145
0.0
146
1.0
147
0.09
 71
     0
 72
     0
 73
     1
 74
     1
 75
     0
 76
     0
 77
     0
 78
     0
170
     0
171
     2
172
     0
173
     0
174
     0
175
     0
176
     0
177
     0
178
     0
270
     2
271
     4
272
     4
273
     2
274
     2
340
11
275
     0
280
     0
281
     0
282
     0
283
     1
284
     0
285
     0
286
     0
287
     3
288
     0
  0
ENDTAB
  0
TABLE
  2
BLOCK_RECORD
  5
1
330
0
100
AcDbSymbolTable
 70
   180
  0
BLOCK_RECORD
  5
1F
330
1
100
AcDbSymbolTableRecord
100
AcDbBlockTableRecord
  2
*MODEL_SPACE
  0
BLOCK_RECORD
  5
1B
330
1
100
AcDbSymbolTableRecord
100
AcDbBlockTableRecord
  2
*PAPER_SPACE
  0
BLOCK_RECORD
  5
3C
330
1
100
AcDbSymbolTableRecord
100
AcDbBlockTableRecord
  2
BLOCK_2
  0
BLOCK_RECORD
  5
40
330
1
100
AcDbSymbolTableRecord
100
AcDbBlockTableRecord
  2
BLOCK_3
  0
BLOCK_RECORD
  5
48
330
1
100
AcDbSymbolTableRecord
100
AcDbBlockTableRecord
  2
BLOCK_4
  0
BLOCK_RECORD
  5
50
330
1
100
AcDbSymbolTableRecord
100
AcDbBlockTableRecord
  2
BLOCK_5
  0
BLOCK_RECORD
  5
58
330
1
100
AcDbSymbolTableRecord
100
AcDbBlockTableRecord
  2
BLOCK_6
  0
BLOCK_RECORD
  5
63
330
1
100
AcDbSymbolTableRecord
100
AcDbBlockTableRecord
  2
BLOCK_7
  0
BLOCK_RECORD
  5
6E
330
1
100
AcDbSymbolTableRecord
100
AcDbBlockTableRecord
  2
BLOCK_8
  0
BLOCK_RECORD
  5
73
330
1
100
AcDbSymbolTableRecord
100
AcDbBlockTableRecord
  2
BLOCK_9
  0
BLOCK_RECORD
  5
7B
330
1
100
AcDbSymbolTableRecord
100
AcDbBlockTableRecord
  2
BLOCK_10
  0
BLOCK_RECORD
  5
83
330
1
100
AcDbSymbolTableRecord
100
AcDbBlockTableRecord
  2
BLOCK_11
  0
BLOCK_RECORD
  5
8B
330
1
100
AcDbSymbolTableRecord
100
AcDbBlockTableRecord
  2
BLOCK_12
  0
BLOCK_RECORD
  5
8F
330
1
100
AcDbSymbolTableRecord
100
AcDbBlockTableRecord
  2
BLOCK_13
  0
BLOCK_RECORD
  5
97
330
1
100
AcDbSymbolTableRecord
100
AcDbBlockTableRecord
  2
BLOCK_14
  0
BLOCK_RECORD
  5
9F
330
1
100
AcDbSymbolTableRecord
100
AcDbBlockTableRecord
  2
BLOCK_15
  0
BLOCK_RECORD
  5
A7
330
1
100
AcDbSymbolTableRecord
100
AcDbBlockTableRecord
  2
BLOCK_16
  0
BLOCK_RECORD
  5
AF
330
1
100
AcDbSymbolTableRecord
100
AcDbBlockTableRecord
  2
BLOCK_17
  0
BLOCK_RECORD
  5
B4
330
1
100
AcDbSymbolTableRecord
100
AcDbBlockTableRecord
  2
BLOCK_18
  0
BLOCK_RECORD
  5
BC
330
1
100
AcDbSymbolTableRecord
100
AcDbBlockTableRecord
  2
BLOCK_19
  0
BLOCK_RECORD
  5
C7
330
1
100
AcDbSymbolTableRecord
100
AcDbBlockTableRecord
  2
BLOCK_20
  0
BLOCK_RECORD
  5
D2
330
1
100
AcDbSymbolTableRecord
100
AcDbBlockTableRecord
  2
BLOCK_21
  0
BLOCK_RECORD
  5
DA
330
1
100
AcDbSymbolTableRecord
100
AcDbBlockTableRecord
  2
BLOCK_22
  0
BLOCK_RECORD
  5
E2
330
1
100
AcDbSymbolTableRecord
100
AcDbBlockTableRecord
  2
BLOCK_23
  0
BLOCK_RECORD
  5
EA
330
1
100
AcDbSymbolTableRecord
100
AcDbBlockTableRecord
  2
BLOCK_24
  0
BLOCK_RECORD
  5
EE
330
1
100
AcDbSymbolTableRecord
100
AcDbBlockTableRecord
  2
BLOCK_25
  0
BLOCK_RECORD
  5
F6
330
1
100
AcDbSymbolTableRecord
100
AcDbBlockTableRecord
  2
BLOCK_26
  0
BLOCK_RECORD
  5
FE
330
1
100
AcDbSymbolTableRecord
100
AcDbBlockTableRecord
  2
BLOCK_27
  0
BLOCK_RECORD
  5
106
330
1
100
AcDbSymbolTableRecord
100
AcDbBlockTableRecord
  2
BLOCK_28
  0
BLOCK_RECORD
  5
111
330
1
100
AcDbSymbolTableRecord
100
AcDbBlockTableRecord
  2
BLOCK_29
  0
BLOCK_RECORD
  5
11C
330
1
100
AcDbSymbolTableRecord
100
AcDbBlockTableRecord
  2
BLOCK_30
  0
BLOCK_RECORD
  5
121
330
1
100
AcDbSymbolTableRecord
100
AcDbBlockTableRecord
  2
BLOCK_31
  0
BLOCK_RECORD
  5
129
330
1
100
AcDbSymbolTableRecord
100
AcDbBlockTableRecord
  2
BLOCK_32
  0
BLOCK_RECORD
  5
131
330
1
100
AcDbSymbolTableRecord
100
AcDbBlockTableRecord
  2
BLOCK_33
  0
BLOCK_RECORD
  5
139
330
1
100
AcDbSymbolTableRecord
100
AcDbBlockTableRecord
  2
BLOCK_34
  0
BLOCK_RECORD
  5
13D
330
1
100
AcDbSymbolTableRecord
100
AcDbBlockTableRecord
  2
BLOCK_35
  0
BLOCK_RECORD
  5
145
330
1
100
AcDbSymbolTableRecord
100
AcDbBlockTableRecord
  2
BLOCK_36
  0
BLOCK_RECORD
  5
14D
330
1
100
AcDbSymbolTableRecord
100
AcDbBlockTableRecord
  2
BLOCK_37
  0
BLOCK_RECORD
  5
155
330
1
100
AcDbSymbolTableRecord
100
AcDbBlockTableRecord
  2
BLOCK_38
  0
BLOCK_RECORD
  5
160
330
1
100
AcDbSymbolTableRecord
100
AcDbBlockTableRecord
  2
BLOCK_39
  0
BLOCK_RECORD
  5
16B
330
1
100
AcDbSymbolTableRecord
100
AcDbBlockTableRecord
  2
BLOCK_40
  0
BLOCK_RECORD
  5
170
330
1
100
AcDbSymbolTableRecord
100
AcDbBlockTableRecord
  2
BLOCK_41
  0
BLOCK_RECORD
  5
178
330
1
100
AcDbSymbolTableRecord
100
AcDbBlockTableRecord
  2
BLOCK_42
  0
BLOCK_RECORD
  5
180
330
1
100
AcDbSymbolTableRecord
100
AcDbBlockTableRecord
  2
BLOCK_43
  0
BLOCK_RECORD
  5
188
330
1
100
AcDbSymbolTableRecord
100
AcDbBlockTableRecord
  2
BLOCK_44
  0
BLOCK_RECORD
  5
18C
330
1
100
AcDbSymbolTableRecord
100
AcDbBlockTableRecord
  2
BLOCK_45
  0
BLOCK_RECORD
  5
194
330
1
100
AcDbSymbolTableRecord
100
AcDbBlockTableRecord
  2
BLOCK_46
  0
BLOCK_RECORD
  5
19C
330
1
100
AcDbSymbolTableRecord
100
AcDbBlockTableRecord
  2
BLOCK_47
  0
BLOCK_RECORD
  5
1A4
330
1
100
AcDbSymbolTableRecord
100
AcDbBlockTableRecord
  2
BLOCK_48
  0
BLOCK_RECORD
  5
1AF
330
1
100
AcDbSymbolTableRecord
100
AcDbBlockTableRecord
  2
BLOCK_49
  0
BLOCK_RECORD
  5
1BA
330
1
100
AcDbSymbolTableRecord
100
AcDbBlockTableRecord
  2
BLOCK_50
  0
BLOCK_RECORD
  5
1BF
330
1
100
AcDbSymbolTableRecord
100
AcDbBlockTableRecord
  2
BLOCK_51
  0
BLOCK_RECORD
  5
1C7
330
1
100
AcDbSymbolTableRecord
100
AcDbBlockTableRecord
  2
BLOCK_52
  0
BLOCK_RECORD
  5
1CF
330
1
100
AcDbSymbolTableRecord
100
AcDbBlockTableRecord
  2
BLOCK_53
  0
BLOCK_RECORD
  5
1D7
330
1
100
AcDbSymbolTableRecord
100
AcDbBlockTableRecord
  2
BLOCK_54
  0
BLOCK_RECORD
  5
1DB
330
1
100
AcDbSymbolTableRecord
100
AcDbBlockTableRecord
  2
BLOCK_55
  0
BLOCK_RECORD
  5
1E3
330
1
100
AcDbSymbolTableRecord
100
AcDbBlockTableRecord
  2
BLOCK_56
  0
BLOCK_RECORD
  5
1EB
330
1
100
AcDbSymbolTableRecord
100
AcDbBlockTableRecord
  2
BLOCK_57
  0
BLOCK_RECORD
  5
1F3
330
1
100
AcDbSymbolTableRecord
100
AcDbBlockTableRecord
  2
BLOCK_58
  0
BLOCK_RECORD
  5
1FE
330
1
100
AcDbSymbolTableRecord
100
AcDbBlockTableRecord
  2
BLOCK_59
  0
BLOCK_RECORD
  5
209
330
1
100
AcDbSymbolTableRecord
100
AcDbBlockTableRecord
  2
BLOCK_60
  0
BLOCK_RECORD
  5
20E
330
1
100
AcDbSymbolTableRecord
100
AcDbBlockTableRecord
  2
BLOCK_61
  0
BLOCK_RECORD
  5
216
330
1
100
AcDbSymbolTableRecord
100
AcDbBlockTableRecord
  2
BLOCK_62
  0
BLOCK_RECORD
  5
21E
330
1
100
AcDbSymbolTableRecord
100
AcDbBlockTableRecord
  2
BLOCK_63
  0
BLOCK_RECORD
  5
226
330
1
100
AcDbSymbolTableRecord
100
AcDbBlockTableRecord
  2
BLOCK_64
  0
BLOCK_RECORD
  5
22B
330
1
100
AcDbSymbolTableRecord
100
AcDbBlockTableRecord
  2
BLOCK_65
  0
BLOCK_RECORD
  5
233
330
1
100
AcDbSymbolTableRecord
100
AcDbBlockTableRecord
  2
BLOCK_66
  0
BLOCK_RECORD
  5
23C
330
1
100
AcDbSymbolTableRecord
100
AcDbBlockTableRecord
  2
BLOCK_67
  0
BLOCK_RECORD
  5
240
330
1
100
AcDbSymbolTableRecord
100
AcDbBlockTableRecord
  2
BLOCK_68
  0
BLOCK_RECORD
  5
24B
330
1
100
AcDbSymbolTableRecord
100
AcDbBlockTableRecord
  2
BLOCK_69
  0
BLOCK_RECORD
  5
24F
330
1
100
AcDbSymbolTableRecord
100
AcDbBlockTableRecord
  2
BLOCK_70
  0
BLOCK_RECORD
  5
257
330
1
100
AcDbSymbolTableRecord
100
AcDbBlockTableRecord
  2
BLOCK_71
  0
BLOCK_RECORD
  5
25F
330
1
100
AcDbSymbolTableRecord
100
AcDbBlockTableRecord
  2
BLOCK_72
  0
BLOCK_RECORD
  5
267
330
1
100
AcDbSymbolTableRecord
100
AcDbBlockTableRecord
  2
BLOCK_73
  0
BLOCK_RECORD
  5
272
330
1
100
AcDbSymbolTableRecord
100
AcDbBlockTableRecord
  2
BLOCK_74
  0
BLOCK_RECORD
  5
27D
330
1
100
AcDbSymbolTableRecord
100
AcDbBlockTableRecord
  2
BLOCK_75
  0
BLOCK_RECORD
  5
282
330
1
100
AcDbSymbolTableRecord
100
AcDbBlockTableRecord
  2
BLOCK_76
  0
BLOCK_RECORD
  5
28A
330
1
100
AcDbSymbolTableRecord
100
AcDbBlockTableRecord
  2
BLOCK_77
  0
BLOCK_RECORD
  5
292
330
1
100
AcDbSymbolTableRecord
100
AcDbBlockTableRecord
  2
BLOCK_78
  0
BLOCK_RECORD
  5
29A
330
1
100
AcDbSymbolTableRecord
100
AcDbBlockTableRecord
  2
BLOCK_79
  0
BLOCK_RECORD
  5
29E
330
1
100
AcDbSymbolTableRecord
100
AcDbBlockTableRecord
  2
BLOCK_80
  0
BLOCK_RECORD
  5
2A6
330
1
100
AcDbSymbolTableRecord
100
AcDbBlockTableRecord
  2
BLOCK_81
  0
BLOCK_RECORD
  5
2AE
330
1
100
AcDbSymbolTableRecord
100
AcDbBlockTableRecord
  2
BLOCK_82
  0
BLOCK_RECORD
  5
2B6
330
1
100
AcDbSymbolTableRecord
100
AcDbBlockTableRecord
  2
BLOCK_83
  0
BLOCK_RECORD
  5
2C1
330
1
100
AcDbSymbolTableRecord
100
AcDbBlockTableRecord
  2
BLOCK_84
  0
BLOCK_RECORD
  5
2CC
330
1
100
AcDbSymbolTableRecord
100
AcDbBlockTableRecord
  2
BLOCK_85
  0
BLOCK_RECORD
  5
2D1
330
1
100
AcDbSymbolTableRecord
100
AcDbBlockTableRecord
  2
BLOCK_86
  0
BLOCK_RECORD
  5
2D9
330
1
100
AcDbSymbolTableRecord
100
AcDbBlockTableRecord
  2
BLOCK_87
  0
BLOCK_RECORD
  5
2E1
330
1
100
AcDbSymbolTableRecord
100
AcDbBlockTableRecord
  2
BLOCK_88
  0
BLOCK_RECORD
  5
2EA
330
1
100
AcDbSymbolTableRecord
100
AcDbBlockTableRecord
  2
BLOCK_89
  0
BLOCK_RECORD
  5
2F2
330
1
100
AcDbSymbolTableRecord
100
AcDbBlockTableRecord
  2
BLOCK_90
  0
BLOCK_RECORD
  5
2FA
330
1
100
AcDbSymbolTableRecord
100
AcDbBlockTableRecord
  2
BLOCK_91
  0
BLOCK_RECORD
  5
302
330
1
100
AcDbSymbolTableRecord
100
AcDbBlockTableRecord
  2
BLOCK_92
  0
BLOCK_RECORD
  5
30A
330
1
100
AcDbSymbolTableRecord
100
AcDbBlockTableRecord
  2
BLOCK_93
  0
BLOCK_RECORD
  5
312
330
1
100
AcDbSymbolTableRecord
100
AcDbBlockTableRecord
  2
BLOCK_94
  0
BLOCK_RECORD
  5
31A
330
1
100
AcDbSymbolTableRecord
100
AcDbBlockTableRecord
  2
BLOCK_95
  0
BLOCK_RECORD
  5
31F
330
1
100
AcDbSymbolTableRecord
100
AcDbBlockTableRecord
  2
BLOCK_96
  0
BLOCK_RECORD
  5
327
330
1
100
AcDbSymbolTableRecord
100
AcDbBlockTableRecord
  2
BLOCK_97
  0
BLOCK_RECORD
  5
32C
330
1
100
AcDbSymbolTableRecord
100
AcDbBlockTableRecord
  2
BLOCK_98
  0
BLOCK_RECORD
  5
334
330
1
100
AcDbSymbolTableRecord
100
AcDbBlockTableRecord
  2
BLOCK_99
  0
BLOCK_RECORD
  5
33C
330
1
100
AcDbSymbolTableRecord
100
AcDbBlockTableRecord
  2
BLOCK_100
  0
BLOCK_RECORD
  5
344
330
1
100
AcDbSymbolTableRecord
100
AcDbBlockTableRecord
  2
BLOCK_101
  0
BLOCK_RECORD
  5
34C
330
1
100
AcDbSymbolTableRecord
100
AcDbBlockTableRecord
  2
BLOCK_102
  0
BLOCK_RECORD
  5
351
330
1
100
AcDbSymbolTableRecord
100
AcDbBlockTableRecord
  2
BLOCK_103
  0
BLOCK_RECORD
  5
356
330
1
100
AcDbSymbolTableRecord
100
AcDbBlockTableRecord
  2
BLOCK_104
  0
BLOCK_RECORD
  5
35B
330
1
100
AcDbSymbolTableRecord
100
AcDbBlockTableRecord
  2
BLOCK_105
  0
BLOCK_RECORD
  5
360
330
1
100
AcDbSymbolTableRecord
100
AcDbBlockTableRecord
  2
BLOCK_106
  0
BLOCK_RECORD
  5
366
330
1
100
AcDbSymbolTableRecord
100
AcDbBlockTableRecord
  2
BLOCK_107
  0
BLOCK_RECORD
  5
36E
330
1
100
AcDbSymbolTableRecord
100
AcDbBlockTableRecord
  2
BLOCK_108
  0
BLOCK_RECORD
  5
373
330
1
100
AcDbSymbolTableRecord
100
AcDbBlockTableRecord
  2
BLOCK_109
  0
BLOCK_RECORD
  5
37B
330
1
100
AcDbSymbolTableRecord
100
AcDbBlockTableRecord
  2
BLOCK_110
  0
BLOCK_RECORD
  5
383
330
1
100
AcDbSymbolTableRecord
100
AcDbBlockTableRecord
  2
BLOCK_111
  0
BLOCK_RECORD
  5
388
330
1
100
AcDbSymbolTableRecord
100
AcDbBlockTableRecord
  2
BLOCK_112
  0
BLOCK_RECORD
  5
38D
330
1
100
AcDbSymbolTableRecord
100
AcDbBlockTableRecord
  2
BLOCK_113
  0
BLOCK_RECORD
  5
392
330
1
100
AcDbSymbolTableRecord
100
AcDbBlockTableRecord
  2
BLOCK_114
  0
BLOCK_RECORD
  5
397
330
1
100
AcDbSymbolTableRecord
100
AcDbBlockTableRecord
  2
BLOCK_115
  0
BLOCK_RECORD
  5
39F
330
1
100
AcDbSymbolTableRecord
100
AcDbBlockTableRecord
  2
BLOCK_116
  0
BLOCK_RECORD
  5
3A7
330
1
100
AcDbSymbolTableRecord
100
AcDbBlockTableRecord
  2
BLOCK_117
  0
BLOCK_RECORD
  5
3AF
330
1
100
AcDbSymbolTableRecord
100
AcDbBlockTableRecord
  2
BLOCK_118
  0
BLOCK_RECORD
  5
3B7
330
1
100
AcDbSymbolTableRecord
100
AcDbBlockTableRecord
  2
BLOCK_119
  0
BLOCK_RECORD
  5
3BC
330
1
100
AcDbSymbolTableRecord
100
AcDbBlockTableRecord
  2
BLOCK_120
  0
BLOCK_RECORD
  5
3C1
330
1
100
AcDbSymbolTableRecord
100
AcDbBlockTableRecord
  2
BLOCK_121
  0
BLOCK_RECORD
  5
3C6
330
1
100
AcDbSymbolTableRecord
100
AcDbBlockTableRecord
  2
BLOCK_122
  0
BLOCK_RECORD
  5
3CB
330
1
100
AcDbSymbolTableRecord
100
AcDbBlockTableRecord
  2
BLOCK_123
  0
BLOCK_RECORD
  5
3D0
330
1
100
AcDbSymbolTableRecord
100
AcDbBlockTableRecord
  2
BLOCK_124
  0
BLOCK_RECORD
  5
3D5
330
1
100
AcDbSymbolTableRecord
100
AcDbBlockTableRecord
  2
BLOCK_125
  0
BLOCK_RECORD
  5
3DA
330
1
100
AcDbSymbolTableRecord
100
AcDbBlockTableRecord
  2
BLOCK_126
  0
BLOCK_RECORD
  5
3E2
330
1
100
AcDbSymbolTableRecord
100
AcDbBlockTableRecord
  2
BLOCK_127
  0
BLOCK_RECORD
  5
3EA
330
1
100
AcDbSymbolTableRecord
100
AcDbBlockTableRecord
  2
BLOCK_128
  0
BLOCK_RECORD
  5
3EF
330
1
100
AcDbSymbolTableRecord
100
AcDbBlockTableRecord
  2
BLOCK_129
  0
BLOCK_RECORD
  5
3F7
330
1
100
AcDbSymbolTableRecord
100
AcDbBlockTableRecord
  2
BLOCK_130
  0
BLOCK_RECORD
  5
3FF
330
1
100
AcDbSymbolTableRecord
100
AcDbBlockTableRecord
  2
BLOCK_131
  0
BLOCK_RECORD
  5
404
330
1
100
AcDbSymbolTableRecord
100
AcDbBlockTableRecord
  2
BLOCK_132
  0
BLOCK_RECORD
  5
409
330
1
100
AcDbSymbolTableRecord
100
AcDbBlockTableRecord
  2
BLOCK_133
  0
BLOCK_RECORD
  5
411
330
1
100
AcDbSymbolTableRecord
100
AcDbBlockTableRecord
  2
BLOCK_134
  0
BLOCK_RECORD
  5
416
330
1
100
AcDbSymbolTableRecord
100
AcDbBlockTableRecord
  2
BLOCK_135
  0
BLOCK_RECORD
  5
41B
330
1
100
AcDbSymbolTableRecord
100
AcDbBlockTableRecord
  2
BLOCK_136
  0
BLOCK_RECORD
  5
420
330
1
100
AcDbSymbolTableRecord
100
AcDbBlockTableRecord
  2
BLOCK_137
  0
BLOCK_RECORD
  5
425
330
1
100
AcDbSymbolTableRecord
100
AcDbBlockTableRecord
  2
BLOCK_138
  0
BLOCK_RECORD
  5
42A
330
1
100
AcDbSymbolTableRecord
100
AcDbBlockTableRecord
  2
BLOCK_139
  0
BLOCK_RECORD
  5
432
330
1
100
AcDbSymbolTableRecord
100
AcDbBlockTableRecord
  2
BLOCK_140
  0
BLOCK_RECORD
  5
437
330
1
100
AcDbSymbolTableRecord
100
AcDbBlockTableRecord
  2
BLOCK_141
  0
BLOCK_RECORD
  5
43C
330
1
100
AcDbSymbolTableRecord
100
AcDbBlockTableRecord
  2
BLOCK_142
  0
BLOCK_RECORD
  5
441
330
1
100
AcDbSymbolTableRecord
100
AcDbBlockTableRecord
  2
BLOCK_143
  0
BLOCK_RECORD
  5
446
330
1
100
AcDbSymbolTableRecord
100
AcDbBlockTableRecord
  2
BLOCK_144
  0
BLOCK_RECORD
  5
44B
330
1
100
AcDbSymbolTableRecord
100
AcDbBlockTableRecord
  2
BLOCK_145
  0
BLOCK_RECORD
  5
450
330
1
100
AcDbSymbolTableRecord
100
AcDbBlockTableRecord
  2
BLOCK_146
  0
BLOCK_RECORD
  5
458
330
1
100
AcDbSymbolTableRecord
100
AcDbBlockTableRecord
  2
BLOCK_147
  0
BLOCK_RECORD
  5
45D
330
1
100
AcDbSymbolTableRecord
100
AcDbBlockTableRecord
  2
BLOCK_148
  0
BLOCK_RECORD
  5
462
330
1
100
AcDbSymbolTableRecord
100
AcDbBlockTableRecord
  2
BLOCK_149
  0
BLOCK_RECORD
  5
467
330
1
100
AcDbSymbolTableRecord
100
AcDbBlockTableRecord
  2
BLOCK_150
  0
BLOCK_RECORD
  5
46C
330
1
100
AcDbSymbolTableRecord
100
AcDbBlockTableRecord
  2
BLOCK_151
  0
BLOCK_RECORD
  5
471
330
1
100
AcDbSymbolTableRecord
100
AcDbBlockTableRecord
  2
BLOCK_152
  0
BLOCK_RECORD
  5
476
330
1
100
AcDbSymbolTableRecord
100
AcDbBlockTableRecord
  2
BLOCK_153
  0
BLOCK_RECORD
  5
47E
330
1
100
AcDbSymbolTableRecord
100
AcDbBlockTableRecord
  2
BLOCK_154
  0
BLOCK_RECORD
  5
483
330
1
100
AcDbSymbolTableRecord
100
AcDbBlockTableRecord
  2
BLOCK_155
  0
BLOCK_RECORD
  5
488
330
1
100
AcDbSymbolTableRecord
100
AcDbBlockTableRecord
  2
BLOCK_156
  0
BLOCK_RECORD
  5
48E
330
1
100
AcDbSymbolTableRecord
100
AcDbBlockTableRecord
  2
BLOCK_157
  0
BLOCK_RECORD
  5
497
330
1
100
AcDbSymbolTableRecord
100
AcDbBlockTableRecord
  2
BLOCK_158
  0
BLOCK_RECORD
  5
4A0
330
1
100
AcDbSymbolTableRecord
100
AcDbBlockTableRecord
  2
BLOCK_159
  0
BLOCK_RECORD
  5
4A9
330
1
100
AcDbSymbolTableRecord
100
AcDbBlockTableRecord
  2
BLOCK_160
  0
BLOCK_RECORD
  5
4B2
330
1
100
AcDbSymbolTableRecord
100
AcDbBlockTableRecord
  2
BLOCK_161
  0
BLOCK_RECORD
  5
4BB
330
1
100
AcDbSymbolTableRecord
100
AcDbBlockTableRecord
  2
BLOCK_162
  0
BLOCK_RECORD
  5
4C4
330
1
100
AcDbSymbolTableRecord
100
AcDbBlockTableRecord
  2
BLOCK_163
  0
BLOCK_RECORD
  5
4CD
330
1
100
AcDbSymbolTableRecord
100
AcDbBlockTableRecord
  2
BLOCK_164
  0
BLOCK_RECORD
  5
4D6
330
1
100
AcDbSymbolTableRecord
100
AcDbBlockTableRecord
  2
BLOCK_165
  0
BLOCK_RECORD
  5
4DF
330
1
100
AcDbSymbolTableRecord
100
AcDbBlockTableRecord
  2
BLOCK_166
  0
BLOCK_RECORD
  5
4E8
330
1
100
AcDbSymbolTableRecord
100
AcDbBlockTableRecord
  2
BLOCK_167
  0
BLOCK_RECORD
  5
4F1
330
1
100
AcDbSymbolTableRecord
100
AcDbBlockTableRecord
  2
BLOCK_168
  0
BLOCK_RECORD
  5
4FA
330
1
100
AcDbSymbolTableRecord
100
AcDbBlockTableRecord
  2
BLOCK_169
  0
BLOCK_RECORD
  5
503
330
1
100
AcDbSymbolTableRecord
100
AcDbBlockTableRecord
  2
BLOCK_170
  0
BLOCK_RECORD
  5
50C
330
1
100
AcDbSymbolTableRecord
100
AcDbBlockTableRecord
  2
BLOCK_171
  0
BLOCK_RECORD
  5
515
330
1
100
AcDbSymbolTableRecord
100
AcDbBlockTableRecord
  2
BLOCK_172
  0
BLOCK_RECORD
  5
51E
330
1
100
AcDbSymbolTableRecord
100
AcDbBlockTableRecord
  2
BLOCK_173
  0
BLOCK_RECORD
  5
527
330
1
100
AcDbSymbolTableRecord
100
AcDbBlockTableRecord
  2
BLOCK_174
  0
BLOCK_RECORD
  5
52D
330
1
100
AcDbSymbolTableRecord
100
AcDbBlockTableRecord
  2
BLOCK_175
  0
BLOCK_RECORD
  5
536
330
1
100
AcDbSymbolTableRecord
100
AcDbBlockTableRecord
  2
BLOCK_176
  0
BLOCK_RECORD
  5
53F
330
1
100
AcDbSymbolTableRecord
100
AcDbBlockTableRecord
  2
BLOCK_177
  0
BLOCK_RECORD
  5
548
330
1
100
AcDbSymbolTableRecord
100
AcDbBlockTableRecord
  2
BLOCK_178
  0
BLOCK_RECORD
  5
551
330
1
100
AcDbSymbolTableRecord
100
AcDbBlockTableRecord
  2
BLOCK_179
  0
BLOCK_RECORD
  5
55A
330
1
100
AcDbSymbolTableRecord
100
AcDbBlockTableRecord
  2
BLOCK_180
  0
ENDTAB
  0
ENDSEC
  0
SECTION
  2
BLOCKS
  0
BLOCK
  5
20
330
1F
100
AcDbEntity
  8
0
100
AcDbBlockBegin
  2
*MODEL_SPACE
 70
     0
 71
     0
 10
0.0
 20
0.0
 30
0.0
  3
*MODEL_SPACE
  1

  0
ENDBLK
  5
21
330
1F
100
AcDbEntity
  8
0
100
AcDbBlockEnd
  0
BLOCK
  5
1C
330
1B
100
AcDbEntity
 67
     1
  8
0
100
AcDbBlockBegin
  2
*PAPER_SPACE
 70
     0
 71
     0
 10
0.0
 20
0.0
 30
0.0
  3
*PAPER_SPACE
  1

  0
ENDBLK
  5
1D
330
1B
100
AcDbEntity
 67
     1
  8
0
100
AcDbBlockEnd
  0
BLOCK
  5
3E
330
3C
100
AcDbEntity
  8
0
100
AcDbBlockBegin
  2
BLOCK_2
 70
     0
 71
     0
 10
0.0
 20
0.0
 30
0.0
  3
BLOCK_2
  1

  0
INSERT
  5
41
330
3C
100
AcDbEntity
  8
MITOIT-MMEK0
100
AcDbBlockReference
  2
BLOCK_3
 10
0.0
 20
0.0
 30
0.0
  0
INSERT
  5
49
330
3C
100
AcDbEntity
  8
MITOIT-MMEK0
100
AcDbBlockReference
  2
BLOCK_4
 10
0.0
 20
0.0
 30
0.0
  0
INSERT
  5
51
330
3C
100
AcDbEntity
  8
MITOIT-MMEK0
100
AcDbBlockReference
  2
BLOCK_5
 10
0.0
 20
0.0
 30
0.0
  0
INSERT
  5
59
330
3C
100
AcDbEntity
  8
MITOIT-MMEK0
100
AcDbBlockReference
  2
BLOCK_6
 10
0.0
 20
0.0
 30
0.0
  0
INSERT
  5
64
330
3C
100
AcDbEntity
  8
MITOIT-MMEK0
100
AcDbBlockReference
  2
BLOCK_7
 10
0.0
 20
0.0
 30
0.0
  0
INSERT
  5
6F
330
3C
100
AcDbEntity
  8
MITOIT-MMEK0
100
AcDbBlockReference
  2
BLOCK_8
 10
0.0
 20
0.0
 30
0.0
  0
INSERT
  5
74
330
3C
100
AcDbEntity
  8
MITOIT-MMEK0
100
AcDbBlockReference
  2
BLOCK_9
 10
0.0
 20
0.0
 30
0.0
  0
INSERT
  5
7C
330
3C
100
AcDbEntity
  8
MITOIT-MMEK0
100
AcDbBlockReference
  2
BLOCK_10
 10
0.0
 20
0.0
 30
0.0
  0
INSERT
  5
84
330
3C
100
AcDbEntity
  8
MITOIT-MMEK0
100
AcDbBlockReference
  2
BLOCK_11
 10
0.0
 20
0.0
 30
0.0
  0
ENDBLK
  5
3F
330
3C
100
AcDbEntity
  8
0
100
AcDbBlockEnd
  0
BLOCK
  5
42
330
40
100
AcDbEntity
  8
0
100
AcDbBlockBegin
  2
BLOCK_3
 70
     0
 71
     0
 10
0.0
 20
0.0
 30
0.0
  3
BLOCK_3
  1

  0
POLYLINE
  5
44
330
40
100
AcDbEntity
  8
MITOIT-MMEK0
 62
     1
100
AcDb2dPolyline
 66
     1
 10
0.0
 20
0.0
 30
0.0
  0
VERTEX
  5
45
330
44
100
AcDbEntity
  8
MITOIT-MMEK0
 62
     1
100
AcDbVertex
100
AcDb2dVertex
 10
446.419921875
 20
320.5390625
 30
0.0
  0
VERTEX
  5
46
330
44
100
AcDbEntity
  8
MITOIT-MMEK0
 62
     1
100
AcDbVertex
100
AcDb2dVertex
 10
394.0029296875
 20
320.5390625
 30
0.0
  0
SEQEND
  5
47
330
44
100
AcDbEntity
  8
MITOIT-MMEK0
  0
ENDBLK
  5
43
330
40
100
AcDbEntity
  8
0
100
AcDbBlockEnd
  0
BLOCK
  5
4A
330
48
100
AcDbEntity
  8
0
100
AcDbBlockBegin
  2
BLOCK_4
 70
     0
 71
     0
 10
0.0
 20
0.0
 30
0.0
  3
BLOCK_4
  1

  0
POLYLINE
  5
4C
330
48
100
AcDbEntity
  8
MITOIT-MMEK0
 62
     1
100
AcDb2dPolyline
 66
     1
 10
0.0
 20
0.0
 30
0.0
  0
VERTEX
  5
4D
330
4C
100
AcDbEntity
  8
MITOIT-MMEK0
 62
     1
100
AcDbVertex
100
AcDb2dVertex
 10
446.419921875
 20
254.4482421875
 30
0.0
  0
VERTEX
  5
4E
330
4C
100
AcDbEntity
  8
MITOIT-MMEK0
 62
     1
100
AcDbVertex
100
AcDb2dVertex
 10
394.0029296875
 20
254.4482421875
 30
0.0
  0
SEQEND
  5
4F
330
4C
100
AcDbEntity
  8
MITOIT-MMEK0
  0
ENDBLK
  5
4B
330
48
100
AcDbEntity
  8
0
100
AcDbBlockEnd
  0
BLOCK
  5
52
330
50
100
AcDbEntity
  8
0
100
AcDbBlockBegin
  2
BLOCK_5
 70
     0
 71
     0
 10
0.0
 20
0.0
 30
0.0
  3
BLOCK_5
  1

  0
POLYLINE
  5
54
330
50
100
AcDbEntity
  8
MITOIT-MMEK0
 62
     2
100
AcDb2dPolyline
 66
     1
 10
0.0
 20
0.0
 30
0.0
  0
VERTEX
  5
55
330
54
100
AcDbEntity
  8
MITOIT-MMEK0
 62
     2
100
AcDbVertex
100
AcDb2dVertex
 10
394.0029296875
 20
314.23046875
 30
0.0
  0
VERTEX
  5
56
330
54
100
AcDbEntity
  8
MITOIT-MMEK0
 62
     2
100
AcDbVertex
100
AcDb2dVertex
 10
394.0029296875
 20
260.7568359375
 30
0.0
  0
SEQEND
  5
57
330
54
100
AcDbEntity
  8
MITOIT-MMEK0
  0
ENDBLK
  5
53
330
50
100
AcDbEntity
  8
0
100
AcDbBlockEnd
  0
BLOCK
  5
5A
330
58
100
AcDbEntity
  8
0
100
AcDbBlockBegin
  2
BLOCK_6
 70
     0
 71
     0
 10
0.0
 20
0.0
 30
0.0
  3
BLOCK_6
  1

  0
POLYLINE
  5
5C
330
58
100
AcDbEntity
  8
MITOIT-MMEK0
100
AcDb2dPolyline
 66
     1
 10
0.0
 20
0.0
 30
0.0
  0
VERTEX
  5
5D
330
5C
100
AcDbEntity
  8
MITOIT-MMEK0
100
AcDbVertex
100
AcDb2dVertex
 10
392.951171875
 20
314.23046875
 30
0.0
  0
VERTEX
  5
5E
330
5C
100
AcDbEntity
  8
MITOIT-MMEK0
100
AcDbVertex
100
AcDb2dVertex
 10
395.0546875
 20
314.23046875
 30
0.0
  0
VERTEX
  5
5F
330
5C
100
AcDbEntity
  8
MITOIT-MMEK0
100
AcDbVertex
100
AcDb2dVertex
 10
394.0029296875
 20
320.5390625
 30
0.0
  0
VERTEX
  5
60
330
5C
100
AcDbEntity
  8
MITOIT-MMEK0
100
AcDbVertex
100
AcDb2dVertex
 10
392.951171875
 20
314.23046875
 30
0.0
  0
SEQEND
  5
61
330
5C
100
AcDbEntity
  8
MITOIT-MMEK0
  0
HATCH
  5
62
330
58
100
AcDbEntity
  8
MITOIT-MMEK0
 62
     2
100
AcDbHatch
 10
0.0
 20
0.0
 30
0.0
210
0.0
220
0.0
230
1.0
  2
SOLID
 70
     1
 71
     0
 91
        1
 92
        1
 93
        3
 72
     1
 10
392.951171875
 20
314.23046875
 11
395.0546875
 21
314.23046875
 72
     1
 10
395.0546875
 20
314.23046875
 11
394.0029296875
 21
320.5390625
 72
     1
 10
394.0029296875
 20
320.5390625
 11
392.951171875
 21
314.23046875
 97
        0
 75
     2
 76
     1
 98
        0
  0
ENDBLK
  5
5B
330
58
100
AcDbEntity
  8
0
100
AcDbBlockEnd
  0
BLOCK
  5
65
330
63
100
AcDbEntity
  8
0
100
AcDbBlockBegin
  2
BLOCK_7
 70
     0
 71
     0
 10
0.0
 20
0.0
 30
0.0
  3
BLOCK_7
  1

  0
POLYLINE
  5
67
330
63
100
AcDbEntity
  8
MITOIT-MMEK0
100
AcDb2dPolyline
 66
     1
 10
0.0
 20
0.0
 30
0.0
  0
VERTEX
  5
68
330
67
100
AcDbEntity
  8
MITOIT-MMEK0
100
AcDbVertex
100
AcDb2dVertex
 10
392.951171875
 20
260.7568359375
 30
0.0
  0
VERTEX
  5
69
330
67
100
AcDbEntity
  8
MITOIT-MMEK0
100
AcDbVertex
100
AcDb2dVertex
 10
395.0546875
 20
260.7568359375
 30
0.0
  0
VERTEX
  5
6A
330
67
100
AcDbEntity
  8
MITOIT-MMEK0
100
AcDbVertex
100
AcDb2dVertex
 10
394.0029296875
 20
254.4482421875
 30
0.0
  0
VERTEX
  5
6B
330
67
100
AcDbEntity
  8
MITOIT-MMEK0
100
AcDbVertex
100
AcDb2dVertex
 10
392.951171875
 20
260.7568359375
 30
0.0
  0
SEQEND
  5
6C
330
67
100
AcDbEntity
  8
MITOIT-MMEK0
  0
HATCH
  5
6D
330
63
100
AcDbEntity
  8
MITOIT-MMEK0
 62
     2
100
AcDbHatch
 10
0.0
 20
0.0
 30
0.0
210
0.0
220
0.0
230
1.0
  2
SOLID
 70
     1
 71
     0
 91
        1
 92
        1
 93
        3
 72
     1
 10
392.951171875
 20
260.7568359375
 11
395.0546875
 21
260.7568359375
 72
     1
 10
395.0546875
 20
260.7568359375
 11
394.0029296875
 21
254.4482421875
 72
     1
 10
394.0029296875
 20
254.4482421875
 11
392.951171875
 21
260.7568359375
 97
        0
 75
     2
 76
     1
 98
        0
  0
ENDBLK
  5
66
330
63
100
AcDbEntity
  8
0
100
AcDbBlockEnd
  0
BLOCK
  5
70
330
6E
100
AcDbEntity
  8
0
100
AcDbBlockBegin
  2
BLOCK_8
 70
     0
 71
     0
 10
0.0
 20
0.0
 30
0.0
  3
BLOCK_8
  1

  0
MTEXT
  5
72
330
6E
100
AcDbEntity
  8
MITOIT-MMEK0
 62
     3
100
AcDbMText
 10
391.8994140625
 20
275.2265625
 30
0.0
 40
7.360552406311036
 41
0.0
 71
     7
 72
     1
  1
\fMyriad Pro|b0|i0|c0|p34;\W1;28.2
 11
-4.371139000186241E-8
 21
0.999999999999999
 31
0.0
  0
ENDBLK
  5
71
330
6E
100
AcDbEntity
  8
0
100
AcDbBlockEnd
  0
BLOCK
  5
75
330
73
100
AcDbEntity
  8
0
100
AcDbBlockBegin
  2
BLOCK_9
 70
     0
 71
     0
 10
0.0
 20
0.0
 30
0.0
  3
BLOCK_9
  1

  0
POLYLINE
  5
77
330
73
100
AcDbEntity
  8
MITOIT-MMEK0
100
AcDb2dPolyline
 66
     1
 10
0.0
 20
0.0
 30
0.0
  0
VERTEX
  5
78
330
77
100
AcDbEntity
  8
MITOIT-MMEK0
100
AcDbVertex
100
AcDb2dVertex
 10
446.419921875
 20
320.5390625
 30
0.0
  0
VERTEX
  5
79
330
77
100
AcDbEntity
  8
MITOIT-MMEK0
100
AcDbVertex
100
AcDb2dVertex
 10
446.419921875
 20
320.5390625
 30
0.0
  0
SEQEND
  5
7A
330
77
100
AcDbEntity
  8
MITOIT-MMEK0
  0
ENDBLK
  5
76
330
73
100
AcDbEntity
  8
0
100
AcDbBlockEnd
  0
BLOCK
  5
7D
330
7B
100
AcDbEntity
  8
0
100
AcDbBlockBegin
  2
BLOCK_10
 70
     0
 71
     0
 10
0.0
 20
0.0
 30
0.0
  3
BLOCK_10
  1

  0
POLYLINE
  5
7F
330
7B
100
AcDbEntity
  8
MITOIT-MMEK0
100
AcDb2dPolyline
 66
     1
 10
0.0
 20
0.0
 30
0.0
  0
VERTEX
  5
80
330
7F
100
AcDbEntity
  8
MITOIT-MMEK0
100
AcDbVertex
100
AcDb2dVertex
 10
446.419921875
 20
254.4482421875
 30
0.0
  0
VERTEX
  5
81
330
7F
100
AcDbEntity
  8
MITOIT-MMEK0
100
AcDbVertex
100
AcDb2dVertex
 10
446.419921875
 20
254.4482421875
 30
0.0
  0
SEQEND
  5
82
330
7F
100
AcDbEntity
  8
MITOIT-MMEK0
  0
ENDBLK
  5
7E
330
7B
100
AcDbEntity
  8
0
100
AcDbBlockEnd
  0
BLOCK
  5
85
330
83
100
AcDbEntity
  8
0
100
AcDbBlockBegin
  2
BLOCK_11
 70
     0
 71
     0
 10
0.0
 20
0.0
 30
0.0
  3
BLOCK_11
  1

  0
POLYLINE
  5
87
330
83
100
AcDbEntity
  8
MITOIT-MMEK0
100
AcDb2dPolyline
 66
     1
 10
0.0
 20
0.0
 30
0.0
  0
VERTEX
  5
88
330
87
100
AcDbEntity
  8
MITOIT-MMEK0
100
AcDbVertex
100
AcDb2dVertex
 10
394.0029296875
 20
254.4482421875
 30
0.0
  0
VERTEX
  5
89
330
87
100
AcDbEntity
  8
MITOIT-MMEK0
100
AcDbVertex
100
AcDb2dVertex
 10
394.0029296875
 20
254.4482421875
 30
0.0
  0
SEQEND
  5
8A
330
87
100
AcDbEntity
  8
MITOIT-MMEK0
  0
ENDBLK
  5
86
330
83
100
AcDbEntity
  8
0
100
AcDbBlockEnd
  0
BLOCK
  5
8D
330
8B
100
AcDbEntity
  8
0
100
AcDbBlockBegin
  2
BLOCK_12
 70
     0
 71
     0
 10
0.0
 20
0.0
 30
0.0
  3
BLOCK_12
  1

  0
INSERT
  5
90
330
8B
100
AcDbEntity
  8
MITOIT-MMEK0
100
AcDbBlockReference
  2
BLOCK_13
 10
0.0
 20
0.0
 30
0.0
  0
INSERT
  5
98
330
8B
100
AcDbEntity
  8
MITOIT-MMEK0
100
AcDbBlockReference
  2
BLOCK_14
 10
0.0
 20
0.0
 30
0.0
  0
INSERT
  5
A0
330
8B
100
AcDbEntity
  8
MITOIT-MMEK0
100
AcDbBlockReference
  2
BLOCK_15
 10
0.0
 20
0.0
 30
0.0
  0
INSERT
  5
A8
330
8B
100
AcDbEntity
  8
MITOIT-MMEK0
100
AcDbBlockReference
  2
BLOCK_16
 10
0.0
 20
0.0
 30
0.0
  0
INSERT
  5
B0
330
8B
100
AcDbEntity
  8
MITOIT-MMEK0
100
AcDbBlockReference
  2
BLOCK_17
 10
0.0
 20
0.0
 30
0.0
  0
INSERT
  5
B5
330
8B
100
AcDbEntity
  8
MITOIT-MMEK0
100
AcDbBlockReference
  2
BLOCK_18
 10
0.0
 20
0.0
 30
0.0
  0
INSERT
  5
BD
330
8B
100
AcDbEntity
  8
MITOIT-MMEK0
100
AcDbBlockReference
  2
BLOCK_19
 10
0.0
 20
0.0
 30
0.0
  0
INSERT
  5
C8
330
8B
100
AcDbEntity
  8
MITOIT-MMEK0
100
AcDbBlockReference
  2
BLOCK_20
 10
0.0
 20
0.0
 30
0.0
  0
INSERT
  5
D3
330
8B
100
AcDbEntity
  8
MITOIT-MMEK0
100
AcDbBlockReference
  2
BLOCK_21
 10
0.0
 20
0.0
 30
0.0
  0
INSERT
  5
DB
330
8B
100
AcDbEntity
  8
MITOIT-MMEK0
100
AcDbBlockReference
  2
BLOCK_22
 10
0.0
 20
0.0
 30
0.0
  0
INSERT
  5
E3
330
8B
100
AcDbEntity
  8
MITOIT-MMEK0
100
AcDbBlockReference
  2
BLOCK_23
 10
0.0
 20
0.0
 30
0.0
  0
ENDBLK
  5
8E
330
8B
100
AcDbEntity
  8
0
100
AcDbBlockEnd
  0
BLOCK
  5
91
330
8F
100
AcDbEntity
  8
0
100
AcDbBlockBegin
  2
BLOCK_13
 70
     0
 71
     0
 10
0.0
 20
0.0
 30
0.0
  3
BLOCK_13
  1

  0
POLYLINE
  5
93
330
8F
100
AcDbEntity
  8
MITOIT-MMEK0
 62
     1
100
AcDb2dPolyline
 66
     1
 10
0.0
 20
0.0
 30
0.0
  0
VERTEX
  5
94
330
93
100
AcDbEntity
  8
MITOIT-MMEK0
 62
     1
100
AcDbVertex
100
AcDb2dVertex
 10
163.501953125
 20
520.0087890625
 30
0.0
  0
VERTEX
  5
95
330
93
100
AcDbEntity
  8
MITOIT-MMEK0
 62
     1
100
AcDbVertex
100
AcDb2dVertex
 10
362.294921875
 20
520.0087890625
 30
0.0
  0
SEQEND
  5
96
330
93
100
AcDbEntity
  8
MITOIT-MMEK0
  0
ENDBLK
  5
92
330
8F
100
AcDbEntity
  8
0
100
AcDbBlockEnd
  0
BLOCK
  5
99
330
97
100
AcDbEntity
  8
0
100
AcDbBlockBegin
  2
BLOCK_14
 70
     0
 71
     0
 10
0.0
 20
0.0
 30
0.0
  3
BLOCK_14
  1

  0
POLYLINE
  5
9B
330
97
100
AcDbEntity
  8
MITOIT-MMEK0
 62
     1
100
AcDb2dPolyline
 66
     1
 10
0.0
 20
0.0
 30
0.0
  0
VERTEX
  5
9C
330
9B
100
AcDbEntity
  8
MITOIT-MMEK0
 62
     1
100
AcDbVertex
100
AcDb2dVertex
 10
232.6025390625
 20
529.35546875
 30
0.0
  0
VERTEX
  5
9D
330
9B
100
AcDbEntity
  8
MITOIT-MMEK0
 62
     1
100
AcDbVertex
100
AcDb2dVertex
 10
362.294921875
 20
529.35546875
 30
0.0
  0
SEQEND
  5
9E
330
9B
100
AcDbEntity
  8
MITOIT-MMEK0
  0
ENDBLK
  5
9A
330
97
100
AcDbEntity
  8
0
100
AcDbBlockEnd
  0
BLOCK
  5
A1
330
9F
100
AcDbEntity
  8
0
100
AcDbBlockBegin
  2
BLOCK_15
 70
     0
 71
     0
 10
0.0
 20
0.0
 30
0.0
  3
BLOCK_15
  1

  0
POLYLINE
  5
A3
330
9F
100
AcDbEntity
  8
MITOIT-MMEK0
 62
     2
100
AcDb2dPolyline
 66
     1
 10
0.0
 20
0.0
 30
0.0
  0
VERTEX
  5
A4
330
A3
100
AcDbEntity
  8
MITOIT-MMEK0
 62
     2
100
AcDbVertex
100
AcDb2dVertex
 10
362.294921875
 20
505.98828125
 30
0.0
  0
VERTEX
  5
A5
330
A3
100
AcDbEntity
  8
MITOIT-MMEK0
 62
     2
100
AcDbVertex
100
AcDb2dVertex
 10
362.294921875
 20
491.96826171875
 30
0.0
  0
SEQEND
  5
A6
330
A3
100
AcDbEntity
  8
MITOIT-MMEK0
  0
ENDBLK
  5
A2
330
9F
100
AcDbEntity
  8
0
100
AcDbBlockEnd
  0
BLOCK
  5
A9
330
A7
100
AcDbEntity
  8
0
100
AcDbBlockBegin
  2
BLOCK_16
 70
     0
 71
     0
 10
0.0
 20
0.0
 30
0.0
  3
BLOCK_16
  1

  0
POLYLINE
  5
AB
330
A7
100
AcDbEntity
  8
MITOIT-MMEK0
 62
     2
100
AcDb2dPolyline
 66
     1
 10
0.0
 20
0.0
 30
0.0
  0
VERTEX
  5
AC
330
AB
100
AcDbEntity
  8
MITOIT-MMEK0
 62
     2
100
AcDbVertex
100
AcDb2dVertex
 10
362.294921875
 20
543.37548828125
 30
0.0
  0
VERTEX
  5
AD
330
AB
100
AcDbEntity
  8
MITOIT-MMEK0
 62
     2
100
AcDbVertex
100
AcDb2dVertex
 10
362.294921875
 20
557.3955078125
 30
0.0
  0
SEQEND
  5
AE
330
AB
100
AcDbEntity
  8
MITOIT-MMEK0
  0
ENDBLK
  5
AA
330
A7
100
AcDbEntity
  8
0
100
AcDbBlockEnd
  0
BLOCK
  5
B1
330
AF
100
AcDbEntity
  8
0
100
AcDbBlockBegin
  2
BLOCK_17
 70
     0
 71
     0
 10
0.0
 20
0.0
 30
0.0
  3
BLOCK_17
  1

  0
MTEXT
  5
B3
330
AF
100
AcDbEntity
  8
MITOIT-MMEK0
 62
     3
100
AcDbMText
 10
361.1923828125
 20
490.818359375
 30
0.0
 40
16.35678413391113
 41
0.0
 71
     7
 72
     1
  1
\fMyriad Pro|b0|i0|c0|p34;\W1;4
 11
-4.371139000186241E-8
 21
0.999999999999999
 31
0.0
  0
ENDBLK
  5
B2
330
AF
100
AcDbEntity
  8
0
100
AcDbBlockEnd
  0
BLOCK
  5
B6
330
B4
100
AcDbEntity
  8
0
100
AcDbBlockBegin
  2
BLOCK_18
 70
     0
 71
     0
 10
0.0
 20
0.0
 30
0.0
  3
BLOCK_18
  1

  0
POLYLINE
  5
B8
330
B4
100
AcDbEntity
  8
MITOIT-MMEK0
 62
     2
100
AcDb2dPolyline
 66
     1
 10
0.0
 20
0.0
 30
0.0
  0
VERTEX
  5
B9
330
B8
100
AcDbEntity
  8
MITOIT-MMEK0
 62
     2
100
AcDbVertex
100
AcDb2dVertex
 10
362.294921875
 20
520.0087890625
 30
0.0
  0
VERTEX
  5
BA
330
B8
100
AcDbEntity
  8
MITOIT-MMEK0
 62
     2
100
AcDbVertex
100
AcDb2dVertex
 10
362.294921875
 20
529.35546875
 30
0.0
  0
SEQEND
  5
BB
330
B8
100
AcDbEntity
  8
MITOIT-MMEK0
  0
ENDBLK
  5
B7
330
B4
100
AcDbEntity
  8
0
100
AcDbBlockEnd
  0
BLOCK
  5
BE
330
BC
100
AcDbEntity
  8
0
100
AcDbBlockBegin
  2
BLOCK_19
 70
     0
 71
     0
 10
0.0
 20
0.0
 30
0.0
  3
BLOCK_19
  1

  0
POLYLINE
  5
C0
330
BC
100
AcDbEntity
  8
MITOIT-MMEK0
100
AcDb2dPolyline
 66
     1
 10
0.0
 20
0.0
 30
0.0
  0
VERTEX
  5
C1
330
C0
100
AcDbEntity
  8
MITOIT-MMEK0
100
AcDbVertex
100
AcDb2dVertex
 10
359.958984375
 20
505.98828125
 30
0.0
  0
VERTEX
  5
C2
330
C0
100
AcDbEntity
  8
MITOIT-MMEK0
100
AcDbVertex
100
AcDb2dVertex
 10
364.6318359375
 20
505.98828125
 30
0.0
  0
VERTEX
  5
C3
330
C0
100
AcDbEntity
  8
MITOIT-MMEK0
100
AcDbVertex
100
AcDb2dVertex
 10
362.294921875
 20
520.0087890625
 30
0.0
  0
VERTEX
  5
C4
330
C0
100
AcDbEntity
  8
MITOIT-MMEK0
100
AcDbVertex
100
AcDb2dVertex
 10
359.958984375
 20
505.98828125
 30
0.0
  0
SEQEND
  5
C5
330
C0
100
AcDbEntity
  8
MITOIT-MMEK0
  0
HATCH
  5
C6
330
BC
100
AcDbEntity
  8
MITOIT-MMEK0
 62
     2
100
AcDbHatch
 10
0.0
 20
0.0
 30
0.0
210
0.0
220
0.0
230
1.0
  2
SOLID
 70
     1
 71
     0
 91
        1
 92
        1
 93
        3
 72
     1
 10
359.958984375
 20
505.98828125
 11
364.6318359375
 21
505.98828125
 72
     1
 10
364.6318359375
 20
505.98828125
 11
362.294921875
 21
520.0087890625
 72
     1
 10
362.294921875
 20
520.0087890625
 11
359.958984375
 21
505.98828125
 97
        0
 75
     2
 76
     1
 98
        0
  0
ENDBLK
  5
BF
330
BC
100
AcDbEntity
  8
0
100
AcDbBlockEnd
  0
BLOCK
  5
C9
330
C7
100
AcDbEntity
  8
0
100
AcDbBlockBegin
  2
BLOCK_20
 70
     0
 71
     0
 10
0.0
 20
0.0
 30
0.0
  3
BLOCK_20
  1

  0
POLYLINE
  5
CB
330
C7
100
AcDbEntity
  8
MITOIT-MMEK0
100
AcDb2dPolyline
 66
     1
 10
0.0
 20
0.0
 30
0.0
  0
VERTEX
  5
CC
330
CB
100
AcDbEntity
  8
MITOIT-MMEK0
100
AcDbVertex
100
AcDb2dVertex
 10
359.958984375
 20
543.37548828125
 30
0.0
  0
VERTEX
  5
CD
330
CB
100
AcDbEntity
  8
MITOIT-MMEK0
100
AcDbVertex
100
AcDb2dVertex
 10
364.6318359375
 20
543.37548828125
 30
0.0
  0
VERTEX
  5
CE
330
CB
100
AcDbEntity
  8
MITOIT-MMEK0
100
AcDbVertex
100
AcDb2dVertex
 10
362.294921875
 20
529.35546875
 30
0.0
  0
VERTEX
  5
CF
330
CB
100
AcDbEntity
  8
MITOIT-MMEK0
100
AcDbVertex
100
AcDb2dVertex
 10
359.958984375
 20
543.37548828125
 30
0.0
  0
SEQEND
  5
D0
330
CB
100
AcDbEntity
  8
MITOIT-MMEK0
  0
HATCH
  5
D1
330
C7
100
AcDbEntity
  8
MITOIT-MMEK0
 62
     2
100
AcDbHatch
 10
0.0
 20
0.0
 30
0.0
210
0.0
220
0.0
230
1.0
  2
SOLID
 70
     1
 71
     0
 91
        1
 92
        1
 93
        3
 72
     1
 10
359.958984375
 20
543.37548828125
 11
364.6318359375
 21
543.37548828125
 72
     1
 10
364.6318359375
 20
543.37548828125
 11
362.294921875
 21
529.35546875
 72
     1
 10
362.294921875
 20
529.35546875
 11
359.958984375
 21
543.37548828125
 97
        0
 75
     2
 76
     1
 98
        0
  0
ENDBLK
  5
CA
330
C7
100
AcDbEntity
  8
0
100
AcDbBlockEnd
  0
BLOCK
  5
D4
330
D2
100
AcDbEntity
  8
0
100
AcDbBlockBegin
  2
BLOCK_21
 70
     0
 71
     0
 10
0.0
 20
0.0
 30
0.0
  3
BLOCK_21
  1

  0
POLYLINE
  5
D6
330
D2
100
AcDbEntity
  8
MITOIT-MMEK0
100
AcDb2dPolyline
 66
     1
 10
0.0
 20
0.0
 30
0.0
  0
VERTEX
  5
D7
330
D6
100
AcDbEntity
  8
MITOIT-MMEK0
100
AcDbVertex
100
AcDb2dVertex
 10
163.501953125
 20
520.0087890625
 30
0.0
  0
VERTEX
  5
D8
330
D6
100
AcDbEntity
  8
MITOIT-MMEK0
100
AcDbVertex
100
AcDb2dVertex
 10
163.501953125
 20
520.0087890625
 30
0.0
  0
SEQEND
  5
D9
330
D6
100
AcDbEntity
  8
MITOIT-MMEK0
  0
ENDBLK
  5
D5
330
D2
100
AcDbEntity
  8
0
100
AcDbBlockEnd
  0
BLOCK
  5
DC
330
DA
100
AcDbEntity
  8
0
100
AcDbBlockBegin
  2
BLOCK_22
 70
     0
 71
     0
 10
0.0
 20
0.0
 30
0.0
  3
BLOCK_22
  1

  0
POLYLINE
  5
DE
330
DA
100
AcDbEntity
  8
MITOIT-MMEK0
100
AcDb2dPolyline
 66
     1
 10
0.0
 20
0.0
 30
0.0
  0
VERTEX
  5
DF
330
DE
100
AcDbEntity
  8
MITOIT-MMEK0
100
AcDbVertex
100
AcDb2dVertex
 10
232.6025390625
 20
529.35546875
 30
0.0
  0
VERTEX
  5
E0
330
DE
100
AcDbEntity
  8
MITOIT-MMEK0
100
AcDbVertex
100
AcDb2dVertex
 10
232.6025390625
 20
529.35546875
 30
0.0
  0
SEQEND
  5
E1
330
DE
100
AcDbEntity
  8
MITOIT-MMEK0
  0
ENDBLK
  5
DD
330
DA
100
AcDbEntity
  8
0
100
AcDbBlockEnd
  0
BLOCK
  5
E4
330
E2
100
AcDbEntity
  8
0
100
AcDbBlockBegin
  2
BLOCK_23
 70
     0
 71
     0
 10
0.0
 20
0.0
 30
0.0
  3
BLOCK_23
  1

  0
POLYLINE
  5
E6
330
E2
100
AcDbEntity
  8
MITOIT-MMEK0
100
AcDb2dPolyline
 66
     1
 10
0.0
 20
0.0
 30
0.0
  0
VERTEX
  5
E7
330
E6
100
AcDbEntity
  8
MITOIT-MMEK0
100
AcDbVertex
100
AcDb2dVertex
 10
362.294921875
 20
529.35546875
 30
0.0
  0
VERTEX
  5
E8
330
E6
100
AcDbEntity
  8
MITOIT-MMEK0
100
AcDbVertex
100
AcDb2dVertex
 10
362.294921875
 20
529.35546875
 30
0.0
  0
SEQEND
  5
E9
330
E6
100
AcDbEntity
  8
MITOIT-MMEK0
  0
ENDBLK
  5
E5
330
E2
100
AcDbEntity
  8
0
100
AcDbBlockEnd
  0
BLOCK
  5
EC
330
EA
100
AcDbEntity
  8
0
100
AcDbBlockBegin
  2
BLOCK_24
 70
     0
 71
     0
 10
0.0
 20
0.0
 30
0.0
  3
BLOCK_24
  1

  0
INSERT
  5
EF
330
EA
100
AcDbEntity
  8
MITOIT-MMEK0
100
AcDbBlockReference
  2
BLOCK_25
 10
0.0
 20
0.0
 30
0.0
  0
INSERT
  5
F7
330
EA
100
AcDbEntity
  8
MITOIT-MMEK0
100
AcDbBlockReference
  2
BLOCK_26
 10
0.0
 20
0.0
 30
0.0
  0
INSERT
  5
FF
330
EA
100
AcDbEntity
  8
MITOIT-MMEK0
100
AcDbBlockReference
  2
BLOCK_27
 10
0.0
 20
0.0
 30
0.0
  0
INSERT
  5
107
330
EA
100
AcDbEntity
  8
MITOIT-MMEK0
100
AcDbBlockReference
  2
BLOCK_28
 10
0.0
 20
0.0
 30
0.0
  0
INSERT
  5
112
330
EA
100
AcDbEntity
  8
MITOIT-MMEK0
100
AcDbBlockReference
  2
BLOCK_29
 10
0.0
 20
0.0
 30
0.0
  0
INSERT
  5
11D
330
EA
100
AcDbEntity
  8
MITOIT-MMEK0
100
AcDbBlockReference
  2
BLOCK_30
 10
0.0
 20
0.0
 30
0.0
  0
INSERT
  5
122
330
EA
100
AcDbEntity
  8
MITOIT-MMEK0
100
AcDbBlockReference
  2
BLOCK_31
 10
0.0
 20
0.0
 30
0.0
  0
INSERT
  5
12A
330
EA
100
AcDbEntity
  8
MITOIT-MMEK0
100
AcDbBlockReference
  2
BLOCK_32
 10
0.0
 20
0.0
 30
0.0
  0
INSERT
  5
132
330
EA
100
AcDbEntity
  8
MITOIT-MMEK0
100
AcDbBlockReference
  2
BLOCK_33
 10
0.0
 20
0.0
 30
0.0
  0
ENDBLK
  5
ED
330
EA
100
AcDbEntity
  8
0
100
AcDbBlockEnd
  0
BLOCK
  5
F0
330
EE
100
AcDbEntity
  8
0
100
AcDbBlockBegin
  2
BLOCK_25
 70
     0
 71
     0
 10
0.0
 20
0.0
 30
0.0
  3
BLOCK_25
  1

  0
POLYLINE
  5
F2
330
EE
100
AcDbEntity
  8
MITOIT-MMEK0
 62
     1
100
AcDb2dPolyline
 66
     1
 10
0.0
 20
0.0
 30
0.0
  0
VERTEX
  5
F3
330
F2
100
AcDbEntity
  8
MITOIT-MMEK0
 62
     1
100
AcDbVertex
100
AcDb2dVertex
 10
140.70654296875
 20
287.4931640625
 30
0.0
  0
VERTEX
  5
F4
330
F2
100
AcDbEntity
  8
MITOIT-MMEK0
 62
     1
100
AcDbVertex
100
AcDb2dVertex
 10
140.70654296875
 20
409.41650390625
 30
0.0
  0
SEQEND
  5
F5
330
F2
100
AcDbEntity
  8
MITOIT-MMEK0
  0
ENDBLK
  5
F1
330
EE
100
AcDbEntity
  8
0
100
AcDbBlockEnd
  0
BLOCK
  5
F8
330
F6
100
AcDbEntity
  8
0
100
AcDbBlockBegin
  2
BLOCK_26
 70
     0
 71
     0
 10
0.0
 20
0.0
 30
0.0
  3
BLOCK_26
  1

  0
POLYLINE
  5
FA
330
F6
100
AcDbEntity
  8
MITOIT-MMEK0
 62
     1
100
AcDb2dPolyline
 66
     1
 10
0.0
 20
0.0
 30
0.0
  0
VERTEX
  5
FB
330
FA
100
AcDbEntity
  8
MITOIT-MMEK0
 62
     1
100
AcDbVertex
100
AcDb2dVertex
 10
287.6142578125
 20
287.4931640625
 30
0.0
  0
VERTEX
  5
FC
330
FA
100
AcDbEntity
  8
MITOIT-MMEK0
 62
     1
100
AcDbVertex
100
AcDb2dVertex
 10
287.6142578125
 20
409.41650390625
 30
0.0
  0
SEQEND
  5
FD
330
FA
100
AcDbEntity
  8
MITOIT-MMEK0
  0
ENDBLK
  5
F9
330
F6
100
AcDbEntity
  8
0
100
AcDbBlockEnd
  0
BLOCK
  5
100
330
FE
100
AcDbEntity
  8
0
100
AcDbBlockBegin
  2
BLOCK_27
 70
     0
 71
     0
 10
0.0
 20
0.0
 30
0.0
  3
BLOCK_27
  1

  0
POLYLINE
  5
102
330
FE
100
AcDbEntity
  8
MITOIT-MMEK0
 62
     2
100
AcDb2dPolyline
 66
     1
 10
0.0
 20
0.0
 30
0.0
  0
VERTEX
  5
103
330
102
100
AcDbEntity
  8
MITOIT-MMEK0
 62
     2
100
AcDbVertex
100
AcDb2dVertex
 10
154.7265625
 20
409.41650390625
 30
0.0
  0
VERTEX
  5
104
330
102
100
AcDbEntity
  8
MITOIT-MMEK0
 62
     2
100
AcDbVertex
100
AcDb2dVertex
 10
273.59375
 20
409.41650390625
 30
0.0
  0
SEQEND
  5
105
330
102
100
AcDbEntity
  8
MITOIT-MMEK0
  0
ENDBLK
  5
101
330
FE
100
AcDbEntity
  8
0
100
AcDbBlockEnd
  0
BLOCK
  5
108
330
106
100
AcDbEntity
  8
0
100
AcDbBlockBegin
  2
BLOCK_28
 70
     0
 71
     0
 10
0.0
 20
0.0
 30
0.0
  3
BLOCK_28
  1

  0
POLYLINE
  5
10A
330
106
100
AcDbEntity
  8
MITOIT-MMEK0
100
AcDb2dPolyline
 66
     1
 10
0.0
 20
0.0
 30
0.0
  0
VERTEX
  5
10B
330
10A
100
AcDbEntity
  8
MITOIT-MMEK0
100
AcDbVertex
100
AcDb2dVertex
 10
154.7265625
 20
411.7529296875
 30
0.0
  0
VERTEX
  5
10C
330
10A
100
AcDbEntity
  8
MITOIT-MMEK0
100
AcDbVertex
100
AcDb2dVertex
 10
154.7265625
 20
407.07958984375
 30
0.0
  0
VERTEX
  5
10D
330
10A
100
AcDbEntity
  8
MITOIT-MMEK0
100
AcDbVertex
100
AcDb2dVertex
 10
140.70654296875
 20
409.41650390625
 30
0.0
  0
VERTEX
  5
10E
330
10A
100
AcDbEntity
  8
MITOIT-MMEK0
100
AcDbVertex
100
AcDb2dVertex
 10
154.7265625
 20
411.7529296875
 30
0.0
  0
SEQEND
  5
10F
330
10A
100
AcDbEntity
  8
MITOIT-MMEK0
  0
HATCH
  5
110
330
106
100
AcDbEntity
  8
MITOIT-MMEK0
 62
     2
100
AcDbHatch
 10
0.0
 20
0.0
 30
0.0
210
0.0
220
0.0
230
1.0
  2
SOLID
 70
     1
 71
     0
 91
        1
 92
        1
 93
        3
 72
     1
 10
154.7265625
 20
411.7529296875
 11
154.7265625
 21
407.07958984375
 72
     1
 10
154.7265625
 20
407.07958984375
 11
140.70654296875
 21
409.41650390625
 72
     1
 10
140.70654296875
 20
409.41650390625
 11
154.7265625
 21
411.7529296875
 97
        0
 75
     2
 76
     1
 98
        0
  0
ENDBLK
  5
109
330
106
100
AcDbEntity
  8
0
100
AcDbBlockEnd
  0
BLOCK
  5
113
330
111
100
AcDbEntity
  8
0
100
AcDbBlockBegin
  2
BLOCK_29
 70
     0
 71
     0
 10
0.0
 20
0.0
 30
0.0
  3
BLOCK_29
  1

  0
POLYLINE
  5
115
330
111
100
AcDbEntity
  8
MITOIT-MMEK0
100
AcDb2dPolyline
 66
     1
 10
0.0
 20
0.0
 30
0.0
  0
VERTEX
  5
116
330
115
100
AcDbEntity
  8
MITOIT-MMEK0
100
AcDbVertex
100
AcDb2dVertex
 10
273.59375
 20
411.7529296875
 30
0.0
  0
VERTEX
  5
117
330
115
100
AcDbEntity
  8
MITOIT-MMEK0
100
AcDbVertex
100
AcDb2dVertex
 10
273.59375
 20
407.07958984375
 30
0.0
  0
VERTEX
  5
118
330
115
100
AcDbEntity
  8
MITOIT-MMEK0
100
AcDbVertex
100
AcDb2dVertex
 10
287.6142578125
 20
409.41650390625
 30
0.0
  0
VERTEX
  5
119
330
115
100
AcDbEntity
  8
MITOIT-MMEK0
100
AcDbVertex
100
AcDb2dVertex
 10
273.59375
 20
411.7529296875
 30
0.0
  0
SEQEND
  5
11A
330
115
100
AcDbEntity
  8
MITOIT-MMEK0
  0
HATCH
  5
11B
330
111
100
AcDbEntity
  8
MITOIT-MMEK0
 62
     2
100
AcDbHatch
 10
0.0
 20
0.0
 30
0.0
210
0.0
220
0.0
230
1.0
  2
SOLID
 70
     1
 71
     0
 91
        1
 92
        1
 93
        3
 72
     1
 10
273.59375
 20
411.7529296875
 11
273.59375
 21
407.07958984375
 72
     1
 10
273.59375
 20
407.07958984375
 11
287.6142578125
 21
409.41650390625
 72
     1
 10
287.6142578125
 20
409.41650390625
 11
273.59375
 21
411.7529296875
 97
        0
 75
     2
 76
     1
 98
        0
  0
ENDBLK
  5
114
330
111
100
AcDbEntity
  8
0
100
AcDbBlockEnd
  0
BLOCK
  5
11E
330
11C
100
AcDbEntity
  8
0
100
AcDbBlockBegin
  2
BLOCK_30
 70
     0
 71
     0
 10
0.0
 20
0.0
 30
0.0
  3
BLOCK_30
  1

  0
MTEXT
  5
120
330
11C
100
AcDbEntity
  8
MITOIT-MMEK0
 62
     3
100
AcDbMText
 10
198.19287109375
 20
414.08984375
 30
0.0
 40
16.35678413391113
 41
0.0
 71
     7
 72
     1
  1
\fMyriad Pro|b0|i0|c0|p34;\W1;63
  0
ENDBLK
  5
11F
330
11C
100
AcDbEntity
  8
0
100
AcDbBlockEnd
  0
BLOCK
  5
123
330
121
100
AcDbEntity
  8
0
100
AcDbBlockBegin
  2
BLOCK_31
 70
     0
 71
     0
 10
0.0
 20
0.0
 30
0.0
  3
BLOCK_31
  1

  0
POLYLINE
  5
125
330
121
100
AcDbEntity
  8
MITOIT-MMEK0
100
AcDb2dPolyline
 66
     1
 10
0.0
 20
0.0
 30
0.0
  0
VERTEX
  5
126
330
125
100
AcDbEntity
  8
MITOIT-MMEK0
100
AcDbVertex
100
AcDb2dVertex
 10
140.70654296875
 20
287.4931640625
 30
0.0
  0
VERTEX
  5
127
330
125
100
AcDbEntity
  8
MITOIT-MMEK0
100
AcDbVertex
100
AcDb2dVertex
 10
140.70654296875
 20
287.4931640625
 30
0.0
  0
SEQEND
  5
128
330
125
100
AcDbEntity
  8
MITOIT-MMEK0
  0
ENDBLK
  5
124
330
121
100
AcDbEntity
  8
0
100
AcDbBlockEnd
  0
BLOCK
  5
12B
330
129
100
AcDbEntity
  8
0
100
AcDbBlockBegin
  2
BLOCK_32
 70
     0
 71
     0
 10
0.0
 20
0.0
 30
0.0
  3
BLOCK_32
  1

  0
POLYLINE
  5
12D
330
129
100
AcDbEntity
  8
MITOIT-MMEK0
100
AcDb2dPolyline
 66
     1
 10
0.0
 20
0.0
 30
0.0
  0
VERTEX
  5
12E
330
12D
100
AcDbEntity
  8
MITOIT-MMEK0
100
AcDbVertex
100
AcDb2dVertex
 10
287.6142578125
 20
287.4931640625
 30
0.0
  0
VERTEX
  5
12F
330
12D
100
AcDbEntity
  8
MITOIT-MMEK0
100
AcDbVertex
100
AcDb2dVertex
 10
287.6142578125
 20
287.4931640625
 30
0.0
  0
SEQEND
  5
130
330
12D
100
AcDbEntity
  8
MITOIT-MMEK0
  0
ENDBLK
  5
12C
330
129
100
AcDbEntity
  8
0
100
AcDbBlockEnd
  0
BLOCK
  5
133
330
131
100
AcDbEntity
  8
0
100
AcDbBlockBegin
  2
BLOCK_33
 70
     0
 71
     0
 10
0.0
 20
0.0
 30
0.0
  3
BLOCK_33
  1

  0
POLYLINE
  5
135
330
131
100
AcDbEntity
  8
MITOIT-MMEK0
100
AcDb2dPolyline
 66
     1
 10
0.0
 20
0.0
 30
0.0
  0
VERTEX
  5
136
330
135
100
AcDbEntity
  8
MITOIT-MMEK0
100
AcDbVertex
100
AcDb2dVertex
 10
287.6142578125
 20
409.41650390625
 30
0.0
  0
VERTEX
  5
137
330
135
100
AcDbEntity
  8
MITOIT-MMEK0
100
AcDbVertex
100
AcDb2dVertex
 10
287.6142578125
 20
409.41650390625
 30
0.0
  0
SEQEND
  5
138
330
135
100
AcDbEntity
  8
MITOIT-MMEK0
  0
ENDBLK
  5
134
330
131
100
AcDbEntity
  8
0
100
AcDbBlockEnd
  0
BLOCK
  5
13B
330
139
100
AcDbEntity
  8
0
100
AcDbBlockBegin
  2
BLOCK_34
 70
     0
 71
     0
 10
0.0
 20
0.0
 30
0.0
  3
BLOCK_34
  1

  0
INSERT
  5
13E
330
139
100
AcDbEntity
  8
MITOIT-MMEK0
100
AcDbBlockReference
  2
BLOCK_35
 10
0.0
 20
0.0
 30
0.0
  0
INSERT
  5
146
330
139
100
AcDbEntity
  8
MITOIT-MMEK0
100
AcDbBlockReference
  2
BLOCK_36
 10
0.0
 20
0.0
 30
0.0
  0
INSERT
  5
14E
330
139
100
AcDbEntity
  8
MITOIT-MMEK0
100
AcDbBlockReference
  2
BLOCK_37
 10
0.0
 20
0.0
 30
0.0
  0
INSERT
  5
156
330
139
100
AcDbEntity
  8
MITOIT-MMEK0
100
AcDbBlockReference
  2
BLOCK_38
 10
0.0
 20
0.0
 30
0.0
  0
INSERT
  5
161
330
139
100
AcDbEntity
  8
MITOIT-MMEK0
100
AcDbBlockReference
  2
BLOCK_39
 10
0.0
 20
0.0
 30
0.0
  0
INSERT
  5
16C
330
139
100
AcDbEntity
  8
MITOIT-MMEK0
100
AcDbBlockReference
  2
BLOCK_40
 10
0.0
 20
0.0
 30
0.0
  0
INSERT
  5
171
330
139
100
AcDbEntity
  8
MITOIT-MMEK0
100
AcDbBlockReference
  2
BLOCK_41
 10
0.0
 20
0.0
 30
0.0
  0
INSERT
  5
179
330
139
100
AcDbEntity
  8
MITOIT-MMEK0
100
AcDbBlockReference
  2
BLOCK_42
 10
0.0
 20
0.0
 30
0.0
  0
INSERT
  5
181
330
139
100
AcDbEntity
  8
MITOIT-MMEK0
100
AcDbBlockReference
  2
BLOCK_43
 10
0.0
 20
0.0
 30
0.0
  0
ENDBLK
  5
13C
330
139
100
AcDbEntity
  8
0
100
AcDbBlockEnd
  0
BLOCK
  5
13F
330
13D
100
AcDbEntity
  8
0
100
AcDbBlockBegin
  2
BLOCK_35
 70
     0
 71
     0
 10
0.0
 20
0.0
 30
0.0
  3
BLOCK_35
  1

  0
POLYLINE
  5
141
330
13D
100
AcDbEntity
  8
MITOIT-MMEK0
 62
     1
100
AcDb2dPolyline
 66
     1
 10
0.0
 20
0.0
 30
0.0
  0
VERTEX
  5
142
330
141
100
AcDbEntity
  8
MITOIT-MMEK0
 62
     1
100
AcDbVertex
100
AcDb2dVertex
 10
140.70654296875
 20
379.3955078125
 30
0.0
  0
VERTEX
  5
143
330
141
100
AcDbEntity
  8
MITOIT-MMEK0
 62
     1
100
AcDbVertex
100
AcDb2dVertex
 10
21.14794921875
 20
379.3955078125
 30
0.0
  0
SEQEND
  5
144
330
141
100
AcDbEntity
  8
MITOIT-MMEK0
  0
ENDBLK
  5
140
330
13D
100
AcDbEntity
  8
0
100
AcDbBlockEnd
  0
BLOCK
  5
147
330
145
100
AcDbEntity
  8
0
100
AcDbBlockBegin
  2
BLOCK_36
 70
     0
 71
     0
 10
0.0
 20
0.0
 30
0.0
  3
BLOCK_36
  1

  0
POLYLINE
  5
149
330
145
100
AcDbEntity
  8
MITOIT-MMEK0
 62
     1
100
AcDb2dPolyline
 66
     1
 10
0.0
 20
0.0
 30
0.0
  0
VERTEX
  5
14A
330
149
100
AcDbEntity
  8
MITOIT-MMEK0
 62
     1
100
AcDbVertex
100
AcDb2dVertex
 10
140.70654296875
 20
195.591796875
 30
0.0
  0
VERTEX
  5
14B
330
149
100
AcDbEntity
  8
MITOIT-MMEK0
 62
     1
100
AcDbVertex
100
AcDb2dVertex
 10
21.14794921875
 20
195.591796875
 30
0.0
  0
SEQEND
  5
14C
330
149
100
AcDbEntity
  8
MITOIT-MMEK0
  0
ENDBLK
  5
148
330
145
100
AcDbEntity
  8
0
100
AcDbBlockEnd
  0
BLOCK
  5
14F
330
14D
100
AcDbEntity
  8
0
100
AcDbBlockBegin
  2
BLOCK_37
 70
     0
 71
     0
 10
0.0
 20
0.0
 30
0.0
  3
BLOCK_37
  1

  0
POLYLINE
  5
151
330
14D
100
AcDbEntity
  8
MITOIT-MMEK0
 62
     2
100
AcDb2dPolyline
 66
     1
 10
0.0
 20
0.0
 30
0.0
  0
VERTEX
  5
152
330
151
100
AcDbEntity
  8
MITOIT-MMEK0
 62
     2
100
AcDbVertex
100
AcDb2dVertex
 10
21.14794921875
 20
365.375
 30
0.0
  0
VERTEX
  5
153
330
151
100
AcDbEntity
  8
MITOIT-MMEK0
 62
     2
100
AcDbVertex
100
AcDb2dVertex
 10
21.14794921875
 20
209.6123046875
 30
0.0
  0
SEQEND
  5
154
330
151
100
AcDbEntity
  8
MITOIT-MMEK0
  0
ENDBLK
  5
150
330
14D
100
AcDbEntity
  8
0
100
AcDbBlockEnd
  0
BLOCK
  5
157
330
155
100
AcDbEntity
  8
0
100
AcDbBlockBegin
  2
BLOCK_38
 70
     0
 71
     0
 10
0.0
 20
0.0
 30
0.0
  3
BLOCK_38
  1

  0
POLYLINE
  5
159
330
155
100
AcDbEntity
  8
MITOIT-MMEK0
100
AcDb2dPolyline
 66
     1
 10
0.0
 20
0.0
 30
0.0
  0
VERTEX
  5
15A
330
159
100
AcDbEntity
  8
MITOIT-MMEK0
100
AcDbVertex
100
AcDb2dVertex
 10
18.81103515625
 20
365.375
 30
0.0
  0
VERTEX
  5
15B
330
159
100
AcDbEntity
  8
MITOIT-MMEK0
100
AcDbVertex
100
AcDb2dVertex
 10
23.484375
 20
365.375
 30
0.0
  0
VERTEX
  5
15C
330
159
100
AcDbEntity
  8
MITOIT-MMEK0
100
AcDbVertex
100
AcDb2dVertex
 10
21.14794921875
 20
379.3955078125
 30
0.0
  0
VERTEX
  5
15D
330
159
100
AcDbEntity
  8
MITOIT-MMEK0
100
AcDbVertex
100
AcDb2dVertex
 10
18.81103515625
 20
365.375
 30
0.0
  0
SEQEND
  5
15E
330
159
100
AcDbEntity
  8
MITOIT-MMEK0
  0
HATCH
  5
15F
330
155
100
AcDbEntity
  8
MITOIT-MMEK0
 62
     2
100
AcDbHatch
 10
0.0
 20
0.0
 30
0.0
210
0.0
220
0.0
230
1.0
  2
SOLID
 70
     1
 71
     0
 91
        1
 92
        1
 93
        3
 72
     1
 10
18.81103515625
 20
365.375
 11
23.484375
 21
365.375
 72
     1
 10
23.484375
 20
365.375
 11
21.14794921875
 21
379.3955078125
 72
     1
 10
21.14794921875
 20
379.3955078125
 11
18.81103515625
 21
365.375
 97
        0
 75
     2
 76
     1
 98
        0
  0
ENDBLK
  5
158
330
155
100
AcDbEntity
  8
0
100
AcDbBlockEnd
  0
BLOCK
  5
162
330
160
100
AcDbEntity
  8
0
100
AcDbBlockBegin
  2
BLOCK_39
 70
     0
 71
     0
 10
0.0
 20
0.0
 30
0.0
  3
BLOCK_39
  1

  0
POLYLINE
  5
164
330
160
100
AcDbEntity
  8
MITOIT-MMEK0
100
AcDb2dPolyline
 66
     1
 10
0.0
 20
0.0
 30
0.0
  0
VERTEX
  5
165
330
164
100
AcDbEntity
  8
MITOIT-MMEK0
100
AcDbVertex
100
AcDb2dVertex
 10
18.81103515625
 20
209.6123046875
 30
0.0
  0
VERTEX
  5
166
330
164
100
AcDbEntity
  8
MITOIT-MMEK0
100
AcDbVertex
100
AcDb2dVertex
 10
23.484375
 20
209.6123046875
 30
0.0
  0
VERTEX
  5
167
330
164
100
AcDbEntity
  8
MITOIT-MMEK0
100
AcDbVertex
100
AcDb2dVertex
 10
21.14794921875
 20
195.591796875
 30
0.0
  0
VERTEX
  5
168
330
164
100
AcDbEntity
  8
MITOIT-MMEK0
100
AcDbVertex
100
AcDb2dVertex
 10
18.81103515625
 20
209.6123046875
 30
0.0
  0
SEQEND
  5
169
330
164
100
AcDbEntity
  8
MITOIT-MMEK0
  0
HATCH
  5
16A
330
160
100
AcDbEntity
  8
MITOIT-MMEK0
 62
     2
100
AcDbHatch
 10
0.0
 20
0.0
 30
0.0
210
0.0
220
0.0
230
1.0
  2
SOLID
 70
     1
 71
     0
 91
        1
 92
        1
 93
        3
 72
     1
 10
18.81103515625
 20
209.6123046875
 11
23.484375
 21
209.6123046875
 72
     1
 10
23.484375
 20
209.6123046875
 11
21.14794921875
 21
195.591796875
 72
     1
 10
21.14794921875
 20
195.591796875
 11
18.81103515625
 21
209.6123046875
 97
        0
 75
     2
 76
     1
 98
        0
  0
ENDBLK
  5
163
330
160
100
AcDbEntity
  8
0
100
AcDbBlockEnd
  0
BLOCK
  5
16D
330
16B
100
AcDbEntity
  8
0
100
AcDbBlockBegin
  2
BLOCK_40
 70
     0
 71
     0
 10
0.0
 20
0.0
 30
0.0
  3
BLOCK_40
  1

  0
MTEXT
  5
16F
330
16B
100
AcDbEntity
  8
MITOIT-MMEK0
 62
     3
100
AcDbMText
 10
16.474609375
 20
260.232421875
 30
0.0
 40
16.35678413391113
 41
0.0
 71
     7
 72
     1
  1
\fMyriad Pro|b0|i0|c0|p34;\W1;78.5
 11
-4.371139000186241E-8
 21
0.999999999999999
 31
0.0
  0
ENDBLK
  5
16E
330
16B
100
AcDbEntity
  8
0
100
AcDbBlockEnd
  0
BLOCK
  5
172
330
170
100
AcDbEntity
  8
0
100
AcDbBlockBegin
  2
BLOCK_41
 70
     0
 71
     0
 10
0.0
 20
0.0
 30
0.0
  3
BLOCK_41
  1

  0
POLYLINE
  5
174
330
170
100
AcDbEntity
  8
MITOIT-MMEK0
100
AcDb2dPolyline
 66
     1
 10
0.0
 20
0.0
 30
0.0
  0
VERTEX
  5
175
330
174
100
AcDbEntity
  8
MITOIT-MMEK0
100
AcDbVertex
100
AcDb2dVertex
 10
140.70654296875
 20
379.3955078125
 30
0.0
  0
VERTEX
  5
176
330
174
100
AcDbEntity
  8
MITOIT-MMEK0
100
AcDbVertex
100
AcDb2dVertex
 10
140.70654296875
 20
379.3955078125
 30
0.0
  0
SEQEND
  5
177
330
174
100
AcDbEntity
  8
MITOIT-MMEK0
  0
ENDBLK
  5
173
330
170
100
AcDbEntity
  8
0
100
AcDbBlockEnd
  0
BLOCK
  5
17A
330
178
100
AcDbEntity
  8
0
100
AcDbBlockBegin
  2
BLOCK_42
 70
     0
 71
     0
 10
0.0
 20
0.0
 30
0.0
  3
BLOCK_42
  1

  0
POLYLINE
  5
17C
330
178
100
AcDbEntity
  8
MITOIT-MMEK0
100
AcDb2dPolyline
 66
     1
 10
0.0
 20
0.0
 30
0.0
  0
VERTEX
  5
17D
330
17C
100
AcDbEntity
  8
MITOIT-MMEK0
100
AcDbVertex
100
AcDb2dVertex
 10
140.70654296875
 20
195.591796875
 30
0.0
  0
VERTEX
  5
17E
330
17C
100
AcDbEntity
  8
MITOIT-MMEK0
100
AcDbVertex
100
AcDb2dVertex
 10
140.70654296875
 20
195.591796875
 30
0.0
  0
SEQEND
  5
17F
330
17C
100
AcDbEntity
  8
MITOIT-MMEK0
  0
ENDBLK
  5
17B
330
178
100
AcDbEntity
  8
0
100
AcDbBlockEnd
  0
BLOCK
  5
182
330
180
100
AcDbEntity
  8
0
100
AcDbBlockBegin
  2
BLOCK_43
 70
     0
 71
     0
 10
0.0
 20
0.0
 30
0.0
  3
BLOCK_43
  1

  0
POLYLINE
  5
184
330
180
100
AcDbEntity
  8
MITOIT-MMEK0
100
AcDb2dPolyline
 66
     1
 10
0.0
 20
0.0
 30
0.0
  0
VERTEX
  5
185
330
184
100
AcDbEntity
  8
MITOIT-MMEK0
100
AcDbVertex
100
AcDb2dVertex
 10
21.14794921875
 20
195.591796875
 30
0.0
  0
VERTEX
  5
186
330
184
100
AcDbEntity
  8
MITOIT-MMEK0
100
AcDbVertex
100
AcDb2dVertex
 10
21.14794921875
 20
195.591796875
 30
0.0
  0
SEQEND
  5
187
330
184
100
AcDbEntity
  8
MITOIT-MMEK0
  0
ENDBLK
  5
183
330
180
100
AcDbEntity
  8
0
100
AcDbBlockEnd
  0
BLOCK
  5
18A
330
188
100
AcDbEntity
  8
0
100
AcDbBlockBegin
  2
BLOCK_44
 70
     0
 71
     0
 10
0.0
 20
0.0
 30
0.0
  3
BLOCK_44
  1

  0
INSERT
  5
18D
330
188
100
AcDbEntity
  8
MITOIT-MMEK0
100
AcDbBlockReference
  2
BLOCK_45
 10
0.0
 20
0.0
 30
0.0
  0
INSERT
  5
195
330
188
100
AcDbEntity
  8
MITOIT-MMEK0
100
AcDbBlockReference
  2
BLOCK_46
 10
0.0
 20
0.0
 30
0.0
  0
INSERT
  5
19D
330
188
100
AcDbEntity
  8
MITOIT-MMEK0
100
AcDbBlockReference
  2
BLOCK_47
 10
0.0
 20
0.0
 30
0.0
  0
INSERT
  5
1A5
330
188
100
AcDbEntity
  8
MITOIT-MMEK0
100
AcDbBlockReference
  2
BLOCK_48
 10
0.0
 20
0.0
 30
0.0
  0
INSERT
  5
1B0
330
188
100
AcDbEntity
  8
MITOIT-MMEK0
100
AcDbBlockReference
  2
BLOCK_49
 10
0.0
 20
0.0
 30
0.0
  0
INSERT
  5
1BB
330
188
100
AcDbEntity
  8
MITOIT-MMEK0
100
AcDbBlockReference
  2
BLOCK_50
 10
0.0
 20
0.0
 30
0.0
  0
INSERT
  5
1C0
330
188
100
AcDbEntity
  8
MITOIT-MMEK0
100
AcDbBlockReference
  2
BLOCK_51
 10
0.0
 20
0.0
 30
0.0
  0
INSERT
  5
1C8
330
188
100
AcDbEntity
  8
MITOIT-MMEK0
100
AcDbBlockReference
  2
BLOCK_52
 10
0.0
 20
0.0
 30
0.0
  0
INSERT
  5
1D0
330
188
100
AcDbEntity
  8
MITOIT-MMEK0
100
AcDbBlockReference
  2
BLOCK_53
 10
0.0
 20
0.0
 30
0.0
  0
ENDBLK
  5
18B
330
188
100
AcDbEntity
  8
0
100
AcDbBlockEnd
  0
BLOCK
  5
18E
330
18C
100
AcDbEntity
  8
0
100
AcDbBlockBegin
  2
BLOCK_45
 70
     0
 71
     0
 10
0.0
 20
0.0
 30
0.0
  3
BLOCK_45
  1

  0
POLYLINE
  5
190
330
18C
100
AcDbEntity
  8
MITOIT-MMEK0
 62
     1
100
AcDb2dPolyline
 66
     1
 10
0.0
 20
0.0
 30
0.0
  0
VERTEX
  5
191
330
190
100
AcDbEntity
  8
MITOIT-MMEK0
 62
     1
100
AcDbVertex
100
AcDb2dVertex
 10
232.6025390625
 20
529.35546875
 30
0.0
  0
VERTEX
  5
192
330
190
100
AcDbEntity
  8
MITOIT-MMEK0
 62
     1
100
AcDbVertex
100
AcDb2dVertex
 10
362.3037109375
 20
529.35546875
 30
0.0
  0
SEQEND
  5
193
330
190
100
AcDbEntity
  8
MITOIT-MMEK0
  0
ENDBLK
  5
18F
330
18C
100
AcDbEntity
  8
0
100
AcDbBlockEnd
  0
BLOCK
  5
196
330
194
100
AcDbEntity
  8
0
100
AcDbBlockBegin
  2
BLOCK_46
 70
     0
 71
     0
 10
0.0
 20
0.0
 30
0.0
  3
BLOCK_46
  1

  0
POLYLINE
  5
198
330
194
100
AcDbEntity
  8
MITOIT-MMEK0
 62
     1
100
AcDb2dPolyline
 66
     1
 10
0.0
 20
0.0
 30
0.0
  0
VERTEX
  5
199
330
198
100
AcDbEntity
  8
MITOIT-MMEK0
 62
     1
100
AcDbVertex
100
AcDb2dVertex
 10
214.31201171875
 20
624.87451171875
 30
0.0
  0
VERTEX
  5
19A
330
198
100
AcDbEntity
  8
MITOIT-MMEK0
 62
     1
100
AcDbVertex
100
AcDb2dVertex
 10
362.3037109375
 20
624.87451171875
 30
0.0
  0
SEQEND
  5
19B
330
198
100
AcDbEntity
  8
MITOIT-MMEK0
  0
ENDBLK
  5
197
330
194
100
AcDbEntity
  8
0
100
AcDbBlockEnd
  0
BLOCK
  5
19E
330
19C
100
AcDbEntity
  8
0
100
AcDbBlockBegin
  2
BLOCK_47
 70
     0
 71
     0
 10
0.0
 20
0.0
 30
0.0
  3
BLOCK_47
  1

  0
POLYLINE
  5
1A0
330
19C
100
AcDbEntity
  8
MITOIT-MMEK0
 62
     2
100
AcDb2dPolyline
 66
     1
 10
0.0
 20
0.0
 30
0.0
  0
VERTEX
  5
1A1
330
1A0
100
AcDbEntity
  8
MITOIT-MMEK0
 62
     2
100
AcDbVertex
100
AcDb2dVertex
 10
362.3037109375
 20
543.37548828125
 30
0.0
  0
VERTEX
  5
1A2
330
1A0
100
AcDbEntity
  8
MITOIT-MMEK0
 62
     2
100
AcDbVertex
100
AcDb2dVertex
 10
362.3037109375
 20
610.85400390625
 30
0.0
  0
SEQEND
  5
1A3
330
1A0
100
AcDbEntity
  8
MITOIT-MMEK0
  0
ENDBLK
  5
19F
330
19C
100
AcDbEntity
  8
0
100
AcDbBlockEnd
  0
BLOCK
  5
1A6
330
1A4
100
AcDbEntity
  8
0
100
AcDbBlockBegin
  2
BLOCK_48
 70
     0
 71
     0
 10
0.0
 20
0.0
 30
0.0
  3
BLOCK_48
  1

  0
POLYLINE
  5
1A8
330
1A4
100
AcDbEntity
  8
MITOIT-MMEK0
100
AcDb2dPolyline
 66
     1
 10
0.0
 20
0.0
 30
0.0
  0
VERTEX
  5
1A9
330
1A8
100
AcDbEntity
  8
MITOIT-MMEK0
100
AcDbVertex
100
AcDb2dVertex
 10
359.966796875
 20
543.37548828125
 30
0.0
  0
VERTEX
  5
1AA
330
1A8
100
AcDbEntity
  8
MITOIT-MMEK0
100
AcDbVertex
100
AcDb2dVertex
 10
364.640625
 20
543.37548828125
 30
0.0
  0
VERTEX
  5
1AB
330
1A8
100
AcDbEntity
  8
MITOIT-MMEK0
100
AcDbVertex
100
AcDb2dVertex
 10
362.3037109375
 20
529.35546875
 30
0.0
  0
VERTEX
  5
1AC
330
1A8
100
AcDbEntity
  8
MITOIT-MMEK0
100
AcDbVertex
100
AcDb2dVertex
 10
359.966796875
 20
543.37548828125
 30
0.0
  0
SEQEND
  5
1AD
330
1A8
100
AcDbEntity
  8
MITOIT-MMEK0
  0
HATCH
  5
1AE
330
1A4
100
AcDbEntity
  8
MITOIT-MMEK0
 62
     2
100
AcDbHatch
 10
0.0
 20
0.0
 30
0.0
210
0.0
220
0.0
230
1.0
  2
SOLID
 70
     1
 71
     0
 91
        1
 92
        1
 93
        3
 72
     1
 10
359.966796875
 20
543.37548828125
 11
364.640625
 21
543.37548828125
 72
     1
 10
364.640625
 20
543.37548828125
 11
362.3037109375
 21
529.35546875
 72
     1
 10
362.3037109375
 20
529.35546875
 11
359.966796875
 21
543.37548828125
 97
        0
 75
     2
 76
     1
 98
        0
  0
ENDBLK
  5
1A7
330
1A4
100
AcDbEntity
  8
0
100
AcDbBlockEnd
  0
BLOCK
  5
1B1
330
1AF
100
AcDbEntity
  8
0
100
AcDbBlockBegin
  2
BLOCK_49
 70
     0
 71
     0
 10
0.0
 20
0.0
 30
0.0
  3
BLOCK_49
  1

  0
POLYLINE
  5
1B3
330
1AF
100
AcDbEntity
  8
MITOIT-MMEK0
100
AcDb2dPolyline
 66
     1
 10
0.0
 20
0.0
 30
0.0
  0
VERTEX
  5
1B4
330
1B3
100
AcDbEntity
  8
MITOIT-MMEK0
100
AcDbVertex
100
AcDb2dVertex
 10
359.966796875
 20
610.85400390625
 30
0.0
  0
VERTEX
  5
1B5
330
1B3
100
AcDbEntity
  8
MITOIT-MMEK0
100
AcDbVertex
100
AcDb2dVertex
 10
364.640625
 20
610.85400390625
 30
0.0
  0
VERTEX
  5
1B6
330
1B3
100
AcDbEntity
  8
MITOIT-MMEK0
100
AcDbVertex
100
AcDb2dVertex
 10
362.3037109375
 20
624.87451171875
 30
0.0
  0
VERTEX
  5
1B7
330
1B3
100
AcDbEntity
  8
MITOIT-MMEK0
100
AcDbVertex
100
AcDb2dVertex
 10
359.966796875
 20
610.85400390625
 30
0.0
  0
SEQEND
  5
1B8
330
1B3
100
AcDbEntity
  8
MITOIT-MMEK0
  0
HATCH
  5
1B9
330
1AF
100
AcDbEntity
  8
MITOIT-MMEK0
 62
     2
100
AcDbHatch
 10
0.0
 20
0.0
 30
0.0
210
0.0
220
0.0
230
1.0
  2
SOLID
 70
     1
 71
     0
 91
        1
 92
        1
 93
        3
 72
     1
 10
359.966796875
 20
610.85400390625
 11
364.640625
 21
610.85400390625
 72
     1
 10
364.640625
 20
610.85400390625
 11
362.3037109375
 21
624.87451171875
 72
     1
 10
362.3037109375
 20
624.87451171875
 11
359.966796875
 21
610.85400390625
 97
        0
 75
     2
 76
     1
 98
        0
  0
ENDBLK
  5
1B2
330
1AF
100
AcDbEntity
  8
0
100
AcDbBlockEnd
  0
BLOCK
  5
1BC
330
1BA
100
AcDbEntity
  8
0
100
AcDbBlockBegin
  2
BLOCK_50
 70
     0
 71
     0
 10
0.0
 20
0.0
 30
0.0
  3
BLOCK_50
  1

  0
MTEXT
  5
1BE
330
1BA
100
AcDbEntity
  8
MITOIT-MMEK0
 62
     3
100
AcDbMText
 10
357.6298828125
 20
563.873046875
 30
0.0
 40
16.35678413391113
 41
0.0
 71
     7
 72
     1
  1
\fMyriad Pro|b0|i0|c0|p34;\W1;41
 11
-4.371139000186241E-8
 21
0.999999999999999
 31
0.0
  0
ENDBLK
  5
1BD
330
1BA
100
AcDbEntity
  8
0
100
AcDbBlockEnd
  0
BLOCK
  5
1C1
330
1BF
100
AcDbEntity
  8
0
100
AcDbBlockBegin
  2
BLOCK_51
 70
     0
 71
     0
 10
0.0
 20
0.0
 30
0.0
  3
BLOCK_51
  1

  0
POLYLINE
  5
1C3
330
1BF
100
AcDbEntity
  8
MITOIT-MMEK0
100
AcDb2dPolyline
 66
     1
 10
0.0
 20
0.0
 30
0.0
  0
VERTEX
  5
1C4
330
1C3
100
AcDbEntity
  8
MITOIT-MMEK0
100
AcDbVertex
100
AcDb2dVertex
 10
232.6025390625
 20
529.35546875
 30
0.0
  0
VERTEX
  5
1C5
330
1C3
100
AcDbEntity
  8
MITOIT-MMEK0
100
AcDbVertex
100
AcDb2dVertex
 10
232.6025390625
 20
529.35546875
 30
0.0
  0
SEQEND
  5
1C6
330
1C3
100
AcDbEntity
  8
MITOIT-MMEK0
  0
ENDBLK
  5
1C2
330
1BF
100
AcDbEntity
  8
0
100
AcDbBlockEnd
  0
BLOCK
  5
1C9
330
1C7
100
AcDbEntity
  8
0
100
AcDbBlockBegin
  2
BLOCK_52
 70
     0
 71
     0
 10
0.0
 20
0.0
 30
0.0
  3
BLOCK_52
  1

  0
POLYLINE
  5
1CB
330
1C7
100
AcDbEntity
  8
MITOIT-MMEK0
100
AcDb2dPolyline
 66
     1
 10
0.0
 20
0.0
 30
0.0
  0
VERTEX
  5
1CC
330
1CB
100
AcDbEntity
  8
MITOIT-MMEK0
100
AcDbVertex
100
AcDb2dVertex
 10
214.31201171875
 20
624.87451171875
 30
0.0
  0
VERTEX
  5
1CD
330
1CB
100
AcDbEntity
  8
MITOIT-MMEK0
100
AcDbVertex
100
AcDb2dVertex
 10
214.31201171875
 20
624.87451171875
 30
0.0
  0
SEQEND
  5
1CE
330
1CB
100
AcDbEntity
  8
MITOIT-MMEK0
  0
ENDBLK
  5
1CA
330
1C7
100
AcDbEntity
  8
0
100
AcDbBlockEnd
  0
BLOCK
  5
1D1
330
1CF
100
AcDbEntity
  8
0
100
AcDbBlockBegin
  2
BLOCK_53
 70
     0
 71
     0
 10
0.0
 20
0.0
 30
0.0
  3
BLOCK_53
  1

  0
POLYLINE
  5
1D3
330
1CF
100
AcDbEntity
  8
MITOIT-MMEK0
100
AcDb2dPolyline
 66
     1
 10
0.0
 20
0.0
 30
0.0
  0
VERTEX
  5
1D4
330
1D3
100
AcDbEntity
  8
MITOIT-MMEK0
100
AcDbVertex
100
AcDb2dVertex
 10
362.3037109375
 20
624.87451171875
 30
0.0
  0
VERTEX
  5
1D5
330
1D3
100
AcDbEntity
  8
MITOIT-MMEK0
100
AcDbVertex
100
AcDb2dVertex
 10
362.3037109375
 20
624.87451171875
 30
0.0
  0
SEQEND
  5
1D6
330
1D3
100
AcDbEntity
  8
MITOIT-MMEK0
  0
ENDBLK
  5
1D2
330
1CF
100
AcDbEntity
  8
0
100
AcDbBlockEnd
  0
BLOCK
  5
1D9
330
1D7
100
AcDbEntity
  8
0
100
AcDbBlockBegin
  2
BLOCK_54
 70
     0
 71
     0
 10
0.0
 20
0.0
 30
0.0
  3
BLOCK_54
  1

  0
INSERT
  5
1DC
330
1D7
100
AcDbEntity
  8
MITOIT-MMEK0
100
AcDbBlockReference
  2
BLOCK_55
 10
0.0
 20
0.0
 30
0.0
  0
INSERT
  5
1E4
330
1D7
100
AcDbEntity
  8
MITOIT-MMEK0
100
AcDbBlockReference
  2
BLOCK_56
 10
0.0
 20
0.0
 30
0.0
  0
INSERT
  5
1EC
330
1D7
100
AcDbEntity
  8
MITOIT-MMEK0
100
AcDbBlockReference
  2
BLOCK_57
 10
0.0
 20
0.0
 30
0.0
  0
INSERT
  5
1F4
330
1D7
100
AcDbEntity
  8
MITOIT-MMEK0
100
AcDbBlockReference
  2
BLOCK_58
 10
0.0
 20
0.0
 30
0.0
  0
INSERT
  5
1FF
330
1D7
100
AcDbEntity
  8
MITOIT-MMEK0
100
AcDbBlockReference
  2
BLOCK_59
 10
0.0
 20
0.0
 30
0.0
  0
INSERT
  5
20A
330
1D7
100
AcDbEntity
  8
MITOIT-MMEK0
100
AcDbBlockReference
  2
BLOCK_60
 10
0.0
 20
0.0
 30
0.0
  0
INSERT
  5
20F
330
1D7
100
AcDbEntity
  8
MITOIT-MMEK0
100
AcDbBlockReference
  2
BLOCK_61
 10
0.0
 20
0.0
 30
0.0
  0
INSERT
  5
217
330
1D7
100
AcDbEntity
  8
MITOIT-MMEK0
100
AcDbBlockReference
  2
BLOCK_62
 10
0.0
 20
0.0
 30
0.0
  0
INSERT
  5
21F
330
1D7
100
AcDbEntity
  8
MITOIT-MMEK0
100
AcDbBlockReference
  2
BLOCK_63
 10
0.0
 20
0.0
 30
0.0
  0
ENDBLK
  5
1DA
330
1D7
100
AcDbEntity
  8
0
100
AcDbBlockEnd
  0
BLOCK
  5
1DD
330
1DB
100
AcDbEntity
  8
0
100
AcDbBlockBegin
  2
BLOCK_55
 70
     0
 71
     0
 10
0.0
 20
0.0
 30
0.0
  3
BLOCK_55
  1

  0
POLYLINE
  5
1DF
330
1DB
100
AcDbEntity
  8
MITOIT-MMEK0
 62
     1
100
AcDb2dPolyline
 66
     1
 10
0.0
 20
0.0
 30
0.0
  0
VERTEX
  5
1E0
330
1DF
100
AcDbEntity
  8
MITOIT-MMEK0
 62
     1
100
AcDbVertex
100
AcDb2dVertex
 10
446.419921875
 20
254.4482421875
 30
0.0
  0
VERTEX
  5
1E1
330
1DF
100
AcDbEntity
  8
MITOIT-MMEK0
 62
     1
100
AcDbVertex
100
AcDb2dVertex
 10
446.419921875
 20
168.1767578125
 30
0.0
  0
SEQEND
  5
1E2
330
1DF
100
AcDbEntity
  8
MITOIT-MMEK0
  0
ENDBLK
  5
1DE
330
1DB
100
AcDbEntity
  8
0
100
AcDbBlockEnd
  0
BLOCK
  5
1E5
330
1E3
100
AcDbEntity
  8
0
100
AcDbBlockBegin
  2
BLOCK_56
 70
     0
 71
     0
 10
0.0
 20
0.0
 30
0.0
  3
BLOCK_56
  1

  0
POLYLINE
  5
1E7
330
1E3
100
AcDbEntity
  8
MITOIT-MMEK0
 62
     1
100
AcDb2dPolyline
 66
     1
 10
0.0
 20
0.0
 30
0.0
  0
VERTEX
  5
1E8
330
1E7
100
AcDbEntity
  8
MITOIT-MMEK0
 62
     1
100
AcDbVertex
100
AcDb2dVertex
 10
512.5107421875
 20
254.4482421875
 30
0.0
  0
VERTEX
  5
1E9
330
1E7
100
AcDbEntity
  8
MITOIT-MMEK0
 62
     1
100
AcDbVertex
100
AcDb2dVertex
 10
512.5107421875
 20
168.1767578125
 30
0.0
  0
SEQEND
  5
1EA
330
1E7
100
AcDbEntity
  8
MITOIT-MMEK0
  0
ENDBLK
  5
1E6
330
1E3
100
AcDbEntity
  8
0
100
AcDbBlockEnd
  0
BLOCK
  5
1ED
330
1EB
100
AcDbEntity
  8
0
100
AcDbBlockBegin
  2
BLOCK_57
 70
     0
 71
     0
 10
0.0
 20
0.0
 30
0.0
  3
BLOCK_57
  1

  0
POLYLINE
  5
1EF
330
1EB
100
AcDbEntity
  8
MITOIT-MMEK0
 62
     2
100
AcDb2dPolyline
 66
     1
 10
0.0
 20
0.0
 30
0.0
  0
VERTEX
  5
1F0
330
1EF
100
AcDbEntity
  8
MITOIT-MMEK0
 62
     2
100
AcDbVertex
100
AcDb2dVertex
 10
452.728515625
 20
168.1767578125
 30
0.0
  0
VERTEX
  5
1F1
330
1EF
100
AcDbEntity
  8
MITOIT-MMEK0
 62
     2
100
AcDbVertex
100
AcDb2dVertex
 10
506.2021484375
 20
168.1767578125
 30
0.0
  0
SEQEND
  5
1F2
330
1EF
100
AcDbEntity
  8
MITOIT-MMEK0
  0
ENDBLK
  5
1EE
330
1EB
100
AcDbEntity
  8
0
100
AcDbBlockEnd
  0
BLOCK
  5
1F5
330
1F3
100
AcDbEntity
  8
0
100
AcDbBlockBegin
  2
BLOCK_58
 70
     0
 71
     0
 10
0.0
 20
0.0
 30
0.0
  3
BLOCK_58
  1

  0
POLYLINE
  5
1F7
330
1F3
100
AcDbEntity
  8
MITOIT-MMEK0
100
AcDb2dPolyline
 66
     1
 10
0.0
 20
0.0
 30
0.0
  0
VERTEX
  5
1F8
330
1F7
100
AcDbEntity
  8
MITOIT-MMEK0
100
AcDbVertex
100
AcDb2dVertex
 10
452.728515625
 20
169.228515625
 30
0.0
  0
VERTEX
  5
1F9
330
1F7
100
AcDbEntity
  8
MITOIT-MMEK0
100
AcDbVertex
100
AcDb2dVertex
 10
452.728515625
 20
167.1259765625
 30
0.0
  0
VERTEX
  5
1FA
330
1F7
100
AcDbEntity
  8
MITOIT-MMEK0
100
AcDbVertex
100
AcDb2dVertex
 10
446.419921875
 20
168.1767578125
 30
0.0
  0
VERTEX
  5
1FB
330
1F7
100
AcDbEntity
  8
MITOIT-MMEK0
100
AcDbVertex
100
AcDb2dVertex
 10
452.728515625
 20
169.228515625
 30
0.0
  0
SEQEND
  5
1FC
330
1F7
100
AcDbEntity
  8
MITOIT-MMEK0
  0
HATCH
  5
1FD
330
1F3
100
AcDbEntity
  8
MITOIT-MMEK0
 62
     2
100
AcDbHatch
 10
0.0
 20
0.0
 30
0.0
210
0.0
220
0.0
230
1.0
  2
SOLID
 70
     1
 71
     0
 91
        1
 92
        1
 93
        3
 72
     1
 10
452.728515625
 20
169.228515625
 11
452.728515625
 21
167.1259765625
 72
     1
 10
452.728515625
 20
167.1259765625
 11
446.419921875
 21
168.1767578125
 72
     1
 10
446.419921875
 20
168.1767578125
 11
452.728515625
 21
169.228515625
 97
        0
 75
     2
 76
     1
 98
        0
  0
ENDBLK
  5
1F6
330
1F3
100
AcDbEntity
  8
0
100
AcDbBlockEnd
  0
BLOCK
  5
200
330
1FE
100
AcDbEntity
  8
0
100
AcDbBlockBegin
  2
BLOCK_59
 70
     0
 71
     0
 10
0.0
 20
0.0
 30
0.0
  3
BLOCK_59
  1

  0
POLYLINE
  5
202
330
1FE
100
AcDbEntity
  8
MITOIT-MMEK0
100
AcDb2dPolyline
 66
     1
 10
0.0
 20
0.0
 30
0.0
  0
VERTEX
  5
203
330
202
100
AcDbEntity
  8
MITOIT-MMEK0
100
AcDbVertex
100
AcDb2dVertex
 10
506.2021484375
 20
169.228515625
 30
0.0
  0
VERTEX
  5
204
330
202
100
AcDbEntity
  8
MITOIT-MMEK0
100
AcDbVertex
100
AcDb2dVertex
 10
506.2021484375
 20
167.1259765625
 30
0.0
  0
VERTEX
  5
205
330
202
100
AcDbEntity
  8
MITOIT-MMEK0
100
AcDbVertex
100
AcDb2dVertex
 10
512.5107421875
 20
168.1767578125
 30
0.0
  0
VERTEX
  5
206
330
202
100
AcDbEntity
  8
MITOIT-MMEK0
100
AcDbVertex
100
AcDb2dVertex
 10
506.2021484375
 20
169.228515625
 30
0.0
  0
SEQEND
  5
207
330
202
100
AcDbEntity
  8
MITOIT-MMEK0
  0
HATCH
  5
208
330
1FE
100
AcDbEntity
  8
MITOIT-MMEK0
 62
     2
100
AcDbHatch
 10
0.0
 20
0.0
 30
0.0
210
0.0
220
0.0
230
1.0
  2
SOLID
 70
     1
 71
     0
 91
        1
 92
        1
 93
        3
 72
     1
 10
506.2021484375
 20
169.228515625
 11
506.2021484375
 21
167.1259765625
 72
     1
 10
506.2021484375
 20
167.1259765625
 11
512.5107421875
 21
168.1767578125
 72
     1
 10
512.5107421875
 20
168.1767578125
 11
506.2021484375
 21
169.228515625
 97
        0
 75
     2
 76
     1
 98
        0
  0
ENDBLK
  5
201
330
1FE
100
AcDbEntity
  8
0
100
AcDbBlockEnd
  0
BLOCK
  5
20B
330
209
100
AcDbEntity
  8
0
100
AcDbBlockBegin
  2
BLOCK_60
 70
     0
 71
     0
 10
0.0
 20
0.0
 30
0.0
  3
BLOCK_60
  1

  0
MTEXT
  5
20D
330
209
100
AcDbEntity
  8
MITOIT-MMEK0
 62
     3
100
AcDbMText
 10
467.197265625
 20
170.28125
 30
0.0
 40
7.360552406311036
 41
0.0
 71
     7
 72
     1
  1
\fMyriad Pro|b0|i0|c0|p34;\W1;28.2
  0
ENDBLK
  5
20C
330
209
100
AcDbEntity
  8
0
100
AcDbBlockEnd
  0
BLOCK
  5
210
330
20E
100
AcDbEntity
  8
0
100
AcDbBlockBegin
  2
BLOCK_61
 70
     0
 71
     0
 10
0.0
 20
0.0
 30
0.0
  3
BLOCK_61
  1

  0
POLYLINE
  5
212
330
20E
100
AcDbEntity
  8
MITOIT-MMEK0
100
AcDb2dPolyline
 66
     1
 10
0.0
 20
0.0
 30
0.0
  0
VERTEX
  5
213
330
212
100
AcDbEntity
  8
MITOIT-MMEK0
100
AcDbVertex
100
AcDb2dVertex
 10
446.419921875
 20
254.4482421875
 30
0.0
  0
VERTEX
  5
214
330
212
100
AcDbEntity
  8
MITOIT-MMEK0
100
AcDbVertex
100
AcDb2dVertex
 10
446.419921875
 20
254.4482421875
 30
0.0
  0
SEQEND
  5
215
330
212
100
AcDbEntity
  8
MITOIT-MMEK0
  0
ENDBLK
  5
211
330
20E
100
AcDbEntity
  8
0
100
AcDbBlockEnd
  0
BLOCK
  5
218
330
216
100
AcDbEntity
  8
0
100
AcDbBlockBegin
  2
BLOCK_62
 70
     0
 71
     0
 10
0.0
 20
0.0
 30
0.0
  3
BLOCK_62
  1

  0
POLYLINE
  5
21A
330
216
100
AcDbEntity
  8
MITOIT-MMEK0
100
AcDb2dPolyline
 66
     1
 10
0.0
 20
0.0
 30
0.0
  0
VERTEX
  5
21B
330
21A
100
AcDbEntity
  8
MITOIT-MMEK0
100
AcDbVertex
100
AcDb2dVertex
 10
512.5107421875
 20
254.4482421875
 30
0.0
  0
VERTEX
  5
21C
330
21A
100
AcDbEntity
  8
MITOIT-MMEK0
100
AcDbVertex
100
AcDb2dVertex
 10
512.5107421875
 20
254.4482421875
 30
0.0
  0
SEQEND
  5
21D
330
21A
100
AcDbEntity
  8
MITOIT-MMEK0
  0
ENDBLK
  5
219
330
216
100
AcDbEntity
  8
0
100
AcDbBlockEnd
  0
BLOCK
  5
220
330
21E
100
AcDbEntity
  8
0
100
AcDbBlockBegin
  2
BLOCK_63
 70
     0
 71
     0
 10
0.0
 20
0.0
 30
0.0
  3
BLOCK_63
  1

  0
POLYLINE
  5
222
330
21E
100
AcDbEntity
  8
MITOIT-MMEK0
100
AcDb2dPolyline
 66
     1
 10
0.0
 20
0.0
 30
0.0
  0
VERTEX
  5
223
330
222
100
AcDbEntity
  8
MITOIT-MMEK0
100
AcDbVertex
100
AcDb2dVertex
 10
512.5107421875
 20
168.1767578125
 30
0.0
  0
VERTEX
  5
224
330
222
100
AcDbEntity
  8
MITOIT-MMEK0
100
AcDbVertex
100
AcDb2dVertex
 10
512.5107421875
 20
168.1767578125
 30
0.0
  0
SEQEND
  5
225
330
222
100
AcDbEntity
  8
MITOIT-MMEK0
  0
ENDBLK
  5
221
330
21E
100
AcDbEntity
  8
0
100
AcDbBlockEnd
  0
BLOCK
  5
228
330
226
100
AcDbEntity
  8
0
100
AcDbBlockBegin
  2
BLOCK_64
 70
     0
 71
     0
 10
0.0
 20
0.0
 30
0.0
  3
BLOCK_64
  1

  0
MTEXT
  5
22A
330
226
100
AcDbEntity
  8
MITOIT-MMEK0
 62
     3
100
AcDbMText
 10
543.6640625
 20
242.7236328125
 30
0.0
 40
16.35678413391113
 41
0.0
 71
     7
 72
     1
  1
\fMyriad Pro|b0|i0|c0|p34;\W1;\U+00D84
  0
ENDBLK
  5
229
330
226
100
AcDbEntity
  8
0
100
AcDbBlockEnd
  0
BLOCK
  5
22D
330
22B
100
AcDbEntity
  8
0
100
AcDbBlockBegin
  2
BLOCK_65
 70
     0
 71
     0
 10
0.0
 20
0.0
 30
0.0
  3
BLOCK_65
  1

  0
POLYLINE
  5
22F
330
22B
100
AcDbEntity
  8
MITOIT-MMEK0
 62
     2
100
AcDb2dPolyline
 66
     1
 10
0.0
 20
0.0
 30
0.0
  0
VERTEX
  5
230
330
22F
100
AcDbEntity
  8
MITOIT-MMEK0
 62
     2
100
AcDbVertex
100
AcDb2dVertex
 10
578.587890625
 20
241.5458984375
 30
0.0
  0
VERTEX
  5
231
330
22F
100
AcDbEntity
  8
MITOIT-MMEK0
 62
     2
100
AcDbVertex
100
AcDb2dVertex
 10
537.1025390625
 20
241.5458984375
 30
0.0
  0
SEQEND
  5
232
330
22F
100
AcDbEntity
  8
MITOIT-MMEK0
  0
ENDBLK
  5
22E
330
22B
100
AcDbEntity
  8
0
100
AcDbBlockEnd
  0
BLOCK
  5
235
330
233
100
AcDbEntity
  8
0
100
AcDbBlockBegin
  2
BLOCK_66
 70
     0
 71
     0
 10
0.0
 20
0.0
 30
0.0
  3
BLOCK_66
  1

  0
POLYLINE
  5
237
330
233
100
AcDbEntity
  8
MITOIT-MMEK0
 62
     2
100
AcDb2dPolyline
 66
     1
 10
0.0
 20
0.0
 30
0.0
  0
VERTEX
  5
238
330
237
100
AcDbEntity
  8
MITOIT-MMEK0
 62
     2
100
AcDbVertex
100
AcDb2dVertex
 10
515.783203125
 20
251.111328125
 30
0.0
  0
VERTEX
  5
239
330
237
100
AcDbEntity
  8
MITOIT-MMEK0
 62
     2
100
AcDbVertex
100
AcDb2dVertex
 10
537.1025390625
 20
241.5458984375
 30
0.0
  0
VERTEX
  5
23A
330
237
100
AcDbEntity
  8
MITOIT-MMEK0
 62
     2
100
AcDbVertex
100
AcDb2dVertex
 10
530.86328125
 20
244.345703125
 30
0.0
  0
SEQEND
  5
23B
330
237
100
AcDbEntity
  8
MITOIT-MMEK0
  0
ENDBLK
  5
236
330
233
100
AcDbEntity
  8
0
100
AcDbBlockEnd
  0
BLOCK
  5
23E
330
23C
100
AcDbEntity
  8
0
100
AcDbBlockBegin
  2
BLOCK_67
 70
     0
 71
     0
 10
0.0
 20
0.0
 30
0.0
  3
BLOCK_67
  1

  0
INSERT
  5
241
330
23C
100
AcDbEntity
  8
MITOIT-MMEK0
100
AcDbBlockReference
  2
BLOCK_68
 10
0.0
 20
0.0
 30
0.0
  0
ENDBLK
  5
23F
330
23C
100
AcDbEntity
  8
0
100
AcDbBlockEnd
  0
BLOCK
  5
242
330
240
100
AcDbEntity
  8
0
100
AcDbBlockBegin
  2
BLOCK_68
 70
     0
 71
     0
 10
0.0
 20
0.0
 30
0.0
  3
BLOCK_68
  1

  0
POLYLINE
  5
244
330
240
100
AcDbEntity
  8
MITOIT-MMEK0
100
AcDb2dPolyline
 66
     1
 10
0.0
 20
0.0
 30
0.0
  0
VERTEX
  5
245
330
244
100
AcDbEntity
  8
MITOIT-MMEK0
100
AcDbVertex
100
AcDb2dVertex
 10
515.783203125
 20
251.111328125
 30
0.0
  0
VERTEX
  5
246
330
244
100
AcDbEntity
  8
MITOIT-MMEK0
100
AcDbVertex
100
AcDb2dVertex
 10
527.6181640625
 20
243.240234375
 30
0.0
  0
VERTEX
  5
247
330
244
100
AcDbEntity
  8
MITOIT-MMEK0
100
AcDbVertex
100
AcDb2dVertex
 10
529.53125
 20
247.50390625
 30
0.0
  0
VERTEX
  5
248
330
244
100
AcDbEntity
  8
MITOIT-MMEK0
100
AcDbVertex
100
AcDb2dVertex
 10
515.783203125
 20
251.111328125
 30
0.0
  0
SEQEND
  5
249
330
244
100
AcDbEntity
  8
MITOIT-MMEK0
  0
HATCH
  5
24A
330
240
100
AcDbEntity
  8
MITOIT-MMEK0
 62
     2
100
AcDbHatch
 10
0.0
 20
0.0
 30
0.0
210
0.0
220
0.0
230
1.0
  2
SOLID
 70
     1
 71
     0
 91
        1
 92
        1
 93
        3
 72
     1
 10
515.783203125
 20
251.111328125
 11
527.6181640625
 21
243.240234375
 72
     1
 10
527.6181640625
 20
243.240234375
 11
529.53125
 21
247.50390625
 72
     1
 10
529.53125
 20
247.50390625
 11
515.783203125
 21
251.111328125
 97
        0
 75
     2
 76
     1
 98
        0
  0
ENDBLK
  5
243
330
240
100
AcDbEntity
  8
0
100
AcDbBlockEnd
  0
BLOCK
  5
24D
330
24B
100
AcDbEntity
  8
0
100
AcDbBlockBegin
  2
BLOCK_69
 70
     0
 71
     0
 10
0.0
 20
0.0
 30
0.0
  3
BLOCK_69
  1

  0
INSERT
  5
250
330
24B
100
AcDbEntity
  8
MITOIT-MMEK0
100
AcDbBlockReference
  2
BLOCK_70
 10
0.0
 20
0.0
 30
0.0
  0
INSERT
  5
258
330
24B
100
AcDbEntity
  8
MITOIT-MMEK0
100
AcDbBlockReference
  2
BLOCK_71
 10
0.0
 20
0.0
 30
0.0
  0
INSERT
  5
260
330
24B
100
AcDbEntity
  8
MITOIT-MMEK0
100
AcDbBlockReference
  2
BLOCK_72
 10
0.0
 20
0.0
 30
0.0
  0
INSERT
  5
268
330
24B
100
AcDbEntity
  8
MITOIT-MMEK0
100
AcDbBlockReference
  2
BLOCK_73
 10
0.0
 20
0.0
 30
0.0
  0
INSERT
  5
273
330
24B
100
AcDbEntity
  8
MITOIT-MMEK0
100
AcDbBlockReference
  2
BLOCK_74
 10
0.0
 20
0.0
 30
0.0
  0
INSERT
  5
27E
330
24B
100
AcDbEntity
  8
MITOIT-MMEK0
100
AcDbBlockReference
  2
BLOCK_75
 10
0.0
 20
0.0
 30
0.0
  0
INSERT
  5
283
330
24B
100
AcDbEntity
  8
MITOIT-MMEK0
100
AcDbBlockReference
  2
BLOCK_76
 10
0.0
 20
0.0
 30
0.0
  0
INSERT
  5
28B
330
24B
100
AcDbEntity
  8
MITOIT-MMEK0
100
AcDbBlockReference
  2
BLOCK_77
 10
0.0
 20
0.0
 30
0.0
  0
INSERT
  5
293
330
24B
100
AcDbEntity
  8
MITOIT-MMEK0
100
AcDbBlockReference
  2
BLOCK_78
 10
0.0
 20
0.0
 30
0.0
  0
ENDBLK
  5
24E
330
24B
100
AcDbEntity
  8
0
100
AcDbBlockEnd
  0
BLOCK
  5
251
330
24F
100
AcDbEntity
  8
0
100
AcDbBlockBegin
  2
BLOCK_70
 70
     0
 71
     0
 10
0.0
 20
0.0
 30
0.0
  3
BLOCK_70
  1

  0
POLYLINE
  5
253
330
24F
100
AcDbEntity
  8
MITOIT-MMEK0
 62
     1
100
AcDb2dPolyline
 66
     1
 10
0.0
 20
0.0
 30
0.0
  0
VERTEX
  5
254
330
253
100
AcDbEntity
  8
MITOIT-MMEK0
 62
     1
100
AcDbVertex
100
AcDb2dVertex
 10
446.419921875
 20
320.5390625
 30
0.0
  0
VERTEX
  5
255
330
253
100
AcDbEntity
  8
MITOIT-MMEK0
 62
     1
100
AcDbVertex
100
AcDb2dVertex
 10
501.1572265625
 20
375.2763671875
 30
0.0
  0
SEQEND
  5
256
330
253
100
AcDbEntity
  8
MITOIT-MMEK0
  0
ENDBLK
  5
252
330
24F
100
AcDbEntity
  8
0
100
AcDbBlockEnd
  0
BLOCK
  5
259
330
257
100
AcDbEntity
  8
0
100
AcDbBlockBegin
  2
BLOCK_71
 70
     0
 71
     0
 10
0.0
 20
0.0
 30
0.0
  3
BLOCK_71
  1

  0
POLYLINE
  5
25B
330
257
100
AcDbEntity
  8
MITOIT-MMEK0
 62
     1
100
AcDb2dPolyline
 66
     1
 10
0.0
 20
0.0
 30
0.0
  0
VERTEX
  5
25C
330
25B
100
AcDbEntity
  8
MITOIT-MMEK0
 62
     1
100
AcDbVertex
100
AcDb2dVertex
 10
512.5107421875
 20
254.4482421875
 30
0.0
  0
VERTEX
  5
25D
330
25B
100
AcDbEntity
  8
MITOIT-MMEK0
 62
     1
100
AcDbVertex
100
AcDb2dVertex
 10
567.248046875
 20
309.185546875
 30
0.0
  0
SEQEND
  5
25E
330
25B
100
AcDbEntity
  8
MITOIT-MMEK0
  0
ENDBLK
  5
25A
330
257
100
AcDbEntity
  8
0
100
AcDbBlockEnd
  0
BLOCK
  5
261
330
25F
100
AcDbEntity
  8
0
100
AcDbBlockBegin
  2
BLOCK_72
 70
     0
 71
     0
 10
0.0
 20
0.0
 30
0.0
  3
BLOCK_72
  1

  0
POLYLINE
  5
263
330
25F
100
AcDbEntity
  8
MITOIT-MMEK0
 62
     2
100
AcDb2dPolyline
 66
     1
 10
0.0
 20
0.0
 30
0.0
  0
VERTEX
  5
264
330
263
100
AcDbEntity
  8
MITOIT-MMEK0
 62
     2
100
AcDbVertex
100
AcDb2dVertex
 10
511.0712890625
 20
365.36328125
 30
0.0
  0
VERTEX
  5
265
330
263
100
AcDbEntity
  8
MITOIT-MMEK0
 62
     2
100
AcDbVertex
100
AcDb2dVertex
 10
557.3349609375
 20
319.099609375
 30
0.0
  0
SEQEND
  5
266
330
263
100
AcDbEntity
  8
MITOIT-MMEK0
  0
ENDBLK
  5
262
330
25F
100
AcDbEntity
  8
0
100
AcDbBlockEnd
  0
BLOCK
  5
269
330
267
100
AcDbEntity
  8
0
100
AcDbBlockBegin
  2
BLOCK_73
 70
     0
 71
     0
 10
0.0
 20
0.0
 30
0.0
  3
BLOCK_73
  1

  0
POLYLINE
  5
26B
330
267
100
AcDbEntity
  8
MITOIT-MMEK0
100
AcDb2dPolyline
 66
     1
 10
0.0
 20
0.0
 30
0.0
  0
VERTEX
  5
26C
330
26B
100
AcDbEntity
  8
MITOIT-MMEK0
100
AcDbVertex
100
AcDb2dVertex
 10
512.72265625
 20
367.015625
 30
0.0
  0
VERTEX
  5
26D
330
26B
100
AcDbEntity
  8
MITOIT-MMEK0
100
AcDbVertex
100
AcDb2dVertex
 10
509.4189453125
 20
363.7109375
 30
0.0
  0
VERTEX
  5
26E
330
26B
100
AcDbEntity
  8
MITOIT-MMEK0
100
AcDbVertex
100
AcDb2dVertex
 10
501.1572265625
 20
375.2763671875
 30
0.0
  0
VERTEX
  5
26F
330
26B
100
AcDbEntity
  8
MITOIT-MMEK0
100
AcDbVertex
100
AcDb2dVertex
 10
512.72265625
 20
367.015625
 30
0.0
  0
SEQEND
  5
270
330
26B
100
AcDbEntity
  8
MITOIT-MMEK0
  0
HATCH
  5
271
330
267
100
AcDbEntity
  8
MITOIT-MMEK0
 62
     2
100
AcDbHatch
 10
0.0
 20
0.0
 30
0.0
210
0.0
220
0.0
230
1.0
  2
SOLID
 70
     1
 71
     0
 91
        1
 92
        1
 93
        3
 72
     1
 10
512.72265625
 20
367.015625
 11
509.4189453125
 21
363.7109375
 72
     1
 10
509.4189453125
 20
363.7109375
 11
501.1572265625
 21
375.2763671875
 72
     1
 10
501.1572265625
 20
375.2763671875
 11
512.72265625
 21
367.015625
 97
        0
 75
     2
 76
     1
 98
        0
  0
ENDBLK
  5
26A
330
267
100
AcDbEntity
  8
0
100
AcDbBlockEnd
  0
BLOCK
  5
274
330
272
100
AcDbEntity
  8
0
100
AcDbBlockBegin
  2
BLOCK_74
 70
     0
 71
     0
 10
0.0
 20
0.0
 30
0.0
  3
BLOCK_74
  1

  0
POLYLINE
  5
276
330
272
100
AcDbEntity
  8
MITOIT-MMEK0
100
AcDb2dPolyline
 66
     1
 10
0.0
 20
0.0
 30
0.0
  0
VERTEX
  5
277
330
276
100
AcDbEntity
  8
MITOIT-MMEK0
100
AcDbVertex
100
AcDb2dVertex
 10
558.9873046875
 20
320.7509765625
 30
0.0
  0
VERTEX
  5
278
330
276
100
AcDbEntity
  8
MITOIT-MMEK0
100
AcDbVertex
100
AcDb2dVertex
 10
555.6826171875
 20
317.447265625
 30
0.0
  0
VERTEX
  5
279
330
276
100
AcDbEntity
  8
MITOIT-MMEK0
100
AcDbVertex
100
AcDb2dVertex
 10
567.248046875
 20
309.185546875
 30
0.0
  0
VERTEX
  5
27A
330
276
100
AcDbEntity
  8
MITOIT-MMEK0
100
AcDbVertex
100
AcDb2dVertex
 10
558.9873046875
 20
320.7509765625
 30
0.0
  0
SEQEND
  5
27B
330
276
100
AcDbEntity
  8
MITOIT-MMEK0
  0
HATCH
  5
27C
330
272
100
AcDbEntity
  8
MITOIT-MMEK0
 62
     2
100
AcDbHatch
 10
0.0
 20
0.0
 30
0.0
210
0.0
220
0.0
230
1.0
  2
SOLID
 70
     1
 71
     0
 91
        1
 92
        1
 93
        3
 72
     1
 10
558.9873046875
 20
320.7509765625
 11
555.6826171875
 21
317.447265625
 72
     1
 10
555.6826171875
 20
317.447265625
 11
567.248046875
 21
309.185546875
 72
     1
 10
567.248046875
 20
309.185546875
 11
558.9873046875
 21
320.7509765625
 97
        0
 75
     2
 76
     1
 98
        0
  0
ENDBLK
  5
275
330
272
100
AcDbEntity
  8
0
100
AcDbBlockEnd
  0
BLOCK
  5
27F
330
27D
100
AcDbEntity
  8
0
100
AcDbBlockBegin
  2
BLOCK_75
 70
     0
 71
     0
 10
0.0
 20
0.0
 30
0.0
  3
BLOCK_75
  1

  0
MTEXT
  5
281
330
27D
100
AcDbEntity
  8
MITOIT-MMEK0
 62
     3
100
AcDbMText
 10
521.259765625
 20
361.783203125
 30
0.0
 40
16.35678413391113
 41
0.0
 71
     7
 72
     1
  1
\fMyriad Pro|b0|i0|c0|p34;\W1;\U+00D840
 11
0.7071066786324685
 21
-0.7071068837406117
 31
0.0
  0
ENDBLK
  5
280
330
27D
100
AcDbEntity
  8
0
100
AcDbBlockEnd
  0
BLOCK
  5
284
330
282
100
AcDbEntity
  8
0
100
AcDbBlockBegin
  2
BLOCK_76
 70
     0
 71
     0
 10
0.0
 20
0.0
 30
0.0
  3
BLOCK_76
  1

  0
POLYLINE
  5
286
330
282
100
AcDbEntity
  8
MITOIT-MMEK0
100
AcDb2dPolyline
 66
     1
 10
0.0
 20
0.0
 30
0.0
  0
VERTEX
  5
287
330
286
100
AcDbEntity
  8
MITOIT-MMEK0
100
AcDbVertex
100
AcDb2dVertex
 10
446.419921875
 20
320.5390625
 30
0.0
  0
VERTEX
  5
288
330
286
100
AcDbEntity
  8
MITOIT-MMEK0
100
AcDbVertex
100
AcDb2dVertex
 10
446.419921875
 20
320.5390625
 30
0.0
  0
SEQEND
  5
289
330
286
100
AcDbEntity
  8
MITOIT-MMEK0
  0
ENDBLK
  5
285
330
282
100
AcDbEntity
  8
0
100
AcDbBlockEnd
  0
BLOCK
  5
28C
330
28A
100
AcDbEntity
  8
0
100
AcDbBlockBegin
  2
BLOCK_77
 70
     0
 71
     0
 10
0.0
 20
0.0
 30
0.0
  3
BLOCK_77
  1

  0
POLYLINE
  5
28E
330
28A
100
AcDbEntity
  8
MITOIT-MMEK0
100
AcDb2dPolyline
 66
     1
 10
0.0
 20
0.0
 30
0.0
  0
VERTEX
  5
28F
330
28E
100
AcDbEntity
  8
MITOIT-MMEK0
100
AcDbVertex
100
AcDb2dVertex
 10
512.5107421875
 20
254.4482421875
 30
0.0
  0
VERTEX
  5
290
330
28E
100
AcDbEntity
  8
MITOIT-MMEK0
100
AcDbVertex
100
AcDb2dVertex
 10
512.5107421875
 20
254.4482421875
 30
0.0
  0
SEQEND
  5
291
330
28E
100
AcDbEntity
  8
MITOIT-MMEK0
  0
ENDBLK
  5
28D
330
28A
100
AcDbEntity
  8
0
100
AcDbBlockEnd
  0
BLOCK
  5
294
330
292
100
AcDbEntity
  8
0
100
AcDbBlockBegin
  2
BLOCK_78
 70
     0
 71
     0
 10
0.0
 20
0.0
 30
0.0
  3
BLOCK_78
  1

  0
POLYLINE
  5
296
330
292
100
AcDbEntity
  8
MITOIT-MMEK0
100
AcDb2dPolyline
 66
     1
 10
0.0
 20
0.0
 30
0.0
  0
VERTEX
  5
297
330
296
100
AcDbEntity
  8
MITOIT-MMEK0
100
AcDbVertex
100
AcDb2dVertex
 10
567.248046875
 20
309.185546875
 30
0.0
  0
VERTEX
  5
298
330
296
100
AcDbEntity
  8
MITOIT-MMEK0
100
AcDbVertex
100
AcDb2dVertex
 10
567.248046875
 20
309.185546875
 30
0.0
  0
SEQEND
  5
299
330
296
100
AcDbEntity
  8
MITOIT-MMEK0
  0
ENDBLK
  5
295
330
292
100
AcDbEntity
  8
0
100
AcDbBlockEnd
  0
BLOCK
  5
29C
330
29A
100
AcDbEntity
  8
0
100
AcDbBlockBegin
  2
BLOCK_79
 70
     0
 71
     0
 10
0.0
 20
0.0
 30
0.0
  3
BLOCK_79
  1

  0
INSERT
  5
29F
330
29A
100
AcDbEntity
  8
MITOIT-MMEK0
100
AcDbBlockReference
  2
BLOCK_80
 10
0.0
 20
0.0
 30
0.0
  0
INSERT
  5
2A7
330
29A
100
AcDbEntity
  8
MITOIT-MMEK0
100
AcDbBlockReference
  2
BLOCK_81
 10
0.0
 20
0.0
 30
0.0
  0
INSERT
  5
2AF
330
29A
100
AcDbEntity
  8
MITOIT-MMEK0
100
AcDbBlockReference
  2
BLOCK_82
 10
0.0
 20
0.0
 30
0.0
  0
INSERT
  5
2B7
330
29A
100
AcDbEntity
  8
MITOIT-MMEK0
100
AcDbBlockReference
  2
BLOCK_83
 10
0.0
 20
0.0
 30
0.0
  0
INSERT
  5
2C2
330
29A
100
AcDbEntity
  8
MITOIT-MMEK0
100
AcDbBlockReference
  2
BLOCK_84
 10
0.0
 20
0.0
 30
0.0
  0
INSERT
  5
2CD
330
29A
100
AcDbEntity
  8
MITOIT-MMEK0
100
AcDbBlockReference
  2
BLOCK_85
 10
0.0
 20
0.0
 30
0.0
  0
INSERT
  5
2D2
330
29A
100
AcDbEntity
  8
MITOIT-MMEK0
100
AcDbBlockReference
  2
BLOCK_86
 10
0.0
 20
0.0
 30
0.0
  0
INSERT
  5
2DA
330
29A
100
AcDbEntity
  8
MITOIT-MMEK0
100
AcDbBlockReference
  2
BLOCK_87
 10
0.0
 20
0.0
 30
0.0
  0
INSERT
  5
2E2
330
29A
100
AcDbEntity
  8
MITOIT-MMEK0
100
AcDbBlockReference
  2
BLOCK_88
 10
0.0
 20
0.0
 30
0.0
  0
ENDBLK
  5
29D
330
29A
100
AcDbEntity
  8
0
100
AcDbBlockEnd
  0
BLOCK
  5
2A0
330
29E
100
AcDbEntity
  8
0
100
AcDbBlockBegin
  2
BLOCK_80
 70
     0
 71
     0
 10
0.0
 20
0.0
 30
0.0
  3
BLOCK_80
  1

  0
POLYLINE
  5
2A2
330
29E
100
AcDbEntity
  8
MITOIT-MMEK0
 62
     1
100
AcDb2dPolyline
 66
     1
 10
0.0
 20
0.0
 30
0.0
  0
VERTEX
  5
2A3
330
2A2
100
AcDbEntity
  8
MITOIT-MMEK0
 62
     1
100
AcDbVertex
100
AcDb2dVertex
 10
453.177734375
 20
287.4931640625
 30
0.0
  0
VERTEX
  5
2A4
330
2A2
100
AcDbEntity
  8
MITOIT-MMEK0
 62
     1
100
AcDbVertex
100
AcDb2dVertex
 10
453.177734375
 20
200.0029296875
 30
0.0
  0
SEQEND
  5
2A5
330
2A2
100
AcDbEntity
  8
MITOIT-MMEK0
  0
ENDBLK
  5
2A1
330
29E
100
AcDbEntity
  8
0
100
AcDbBlockEnd
  0
BLOCK
  5
2A8
330
2A6
100
AcDbEntity
  8
0
100
AcDbBlockBegin
  2
BLOCK_81
 70
     0
 71
     0
 10
0.0
 20
0.0
 30
0.0
  3
BLOCK_81
  1

  0
POLYLINE
  5
2AA
330
2A6
100
AcDbEntity
  8
MITOIT-MMEK0
 62
     1
100
AcDb2dPolyline
 66
     1
 10
0.0
 20
0.0
 30
0.0
  0
VERTEX
  5
2AB
330
2AA
100
AcDbEntity
  8
MITOIT-MMEK0
 62
     1
100
AcDbVertex
100
AcDb2dVertex
 10
505.7529296875
 20
287.4931640625
 30
0.0
  0
VERTEX
  5
2AC
330
2AA
100
AcDbEntity
  8
MITOIT-MMEK0
 62
     1
100
AcDbVertex
100
AcDb2dVertex
 10
505.7529296875
 20
200.0029296875
 30
0.0
  0
SEQEND
  5
2AD
330
2AA
100
AcDbEntity
  8
MITOIT-MMEK0
  0
ENDBLK
  5
2A9
330
2A6
100
AcDbEntity
  8
0
100
AcDbBlockEnd
  0
BLOCK
  5
2B0
330
2AE
100
AcDbEntity
  8
0
100
AcDbBlockBegin
  2
BLOCK_82
 70
     0
 71
     0
 10
0.0
 20
0.0
 30
0.0
  3
BLOCK_82
  1

  0
POLYLINE
  5
2B2
330
2AE
100
AcDbEntity
  8
MITOIT-MMEK0
 62
     2
100
AcDb2dPolyline
 66
     1
 10
0.0
 20
0.0
 30
0.0
  0
VERTEX
  5
2B3
330
2B2
100
AcDbEntity
  8
MITOIT-MMEK0
 62
     2
100
AcDbVertex
100
AcDb2dVertex
 10
467.197265625
 20
200.0029296875
 30
0.0
  0
VERTEX
  5
2B4
330
2B2
100
AcDbEntity
  8
MITOIT-MMEK0
 62
     2
100
AcDbVertex
100
AcDb2dVertex
 10
491.732421875
 20
200.0029296875
 30
0.0
  0
SEQEND
  5
2B5
330
2B2
100
AcDbEntity
  8
MITOIT-MMEK0
  0
ENDBLK
  5
2B1
330
2AE
100
AcDbEntity
  8
0
100
AcDbBlockEnd
  0
BLOCK
  5
2B8
330
2B6
100
AcDbEntity
  8
0
100
AcDbBlockBegin
  2
BLOCK_83
 70
     0
 71
     0
 10
0.0
 20
0.0
 30
0.0
  3
BLOCK_83
  1

  0
POLYLINE
  5
2BA
330
2B6
100
AcDbEntity
  8
MITOIT-MMEK0
100
AcDb2dPolyline
 66
     1
 10
0.0
 20
0.0
 30
0.0
  0
VERTEX
  5
2BB
330
2BA
100
AcDbEntity
  8
MITOIT-MMEK0
100
AcDbVertex
100
AcDb2dVertex
 10
467.197265625
 20
202.33984375
 30
0.0
  0
VERTEX
  5
2BC
330
2BA
100
AcDbEntity
  8
MITOIT-MMEK0
100
AcDbVertex
100
AcDb2dVertex
 10
467.197265625
 20
197.666015625
 30
0.0
  0
VERTEX
  5
2BD
330
2BA
100
AcDbEntity
  8
MITOIT-MMEK0
100
AcDbVertex
100
AcDb2dVertex
 10
453.177734375
 20
200.0029296875
 30
0.0
  0
VERTEX
  5
2BE
330
2BA
100
AcDbEntity
  8
MITOIT-MMEK0
100
AcDbVertex
100
AcDb2dVertex
 10
467.197265625
 20
202.33984375
 30
0.0
  0
SEQEND
  5
2BF
330
2BA
100
AcDbEntity
  8
MITOIT-MMEK0
  0
HATCH
  5
2C0
330
2B6
100
AcDbEntity
  8
MITOIT-MMEK0
 62
     2
100
AcDbHatch
 10
0.0
 20
0.0
 30
0.0
210
0.0
220
0.0
230
1.0
  2
SOLID
 70
     1
 71
     0
 91
        1
 92
        1
 93
        3
 72
     1
 10
467.197265625
 20
202.33984375
 11
467.197265625
 21
197.666015625
 72
     1
 10
467.197265625
 20
197.666015625
 11
453.177734375
 21
200.0029296875
 72
     1
 10
453.177734375
 20
200.0029296875
 11
467.197265625
 21
202.33984375
 97
        0
 75
     2
 76
     1
 98
        0
  0
ENDBLK
  5
2B9
330
2B6
100
AcDbEntity
  8
0
100
AcDbBlockEnd
  0
BLOCK
  5
2C3
330
2C1
100
AcDbEntity
  8
0
100
AcDbBlockBegin
  2
BLOCK_84
 70
     0
 71
     0
 10
0.0
 20
0.0
 30
0.0
  3
BLOCK_84
  1

  0
POLYLINE
  5
2C5
330
2C1
100
AcDbEntity
  8
MITOIT-MMEK0
100
AcDb2dPolyline
 66
     1
 10
0.0
 20
0.0
 30
0.0
  0
VERTEX
  5
2C6
330
2C5
100
AcDbEntity
  8
MITOIT-MMEK0
100
AcDbVertex
100
AcDb2dVertex
 10
491.732421875
 20
202.33984375
 30
0.0
  0
VERTEX
  5
2C7
330
2C5
100
AcDbEntity
  8
MITOIT-MMEK0
100
AcDbVertex
100
AcDb2dVertex
 10
491.732421875
 20
197.666015625
 30
0.0
  0
VERTEX
  5
2C8
330
2C5
100
AcDbEntity
  8
MITOIT-MMEK0
100
AcDbVertex
100
AcDb2dVertex
 10
505.7529296875
 20
200.0029296875
 30
0.0
  0
VERTEX
  5
2C9
330
2C5
100
AcDbEntity
  8
MITOIT-MMEK0
100
AcDbVertex
100
AcDb2dVertex
 10
491.732421875
 20
202.33984375
 30
0.0
  0
SEQEND
  5
2CA
330
2C5
100
AcDbEntity
  8
MITOIT-MMEK0
  0
HATCH
  5
2CB
330
2C1
100
AcDbEntity
  8
MITOIT-MMEK0
 62
     2
100
AcDbHatch
 10
0.0
 20
0.0
 30
0.0
210
0.0
220
0.0
230
1.0
  2
SOLID
 70
     1
 71
     0
 91
        1
 92
        1
 93
        3
 72
     1
 10
491.732421875
 20
202.33984375
 11
491.732421875
 21
197.666015625
 72
     1
 10
491.732421875
 20
197.666015625
 11
505.7529296875
 21
200.0029296875
 72
     1
 10
505.7529296875
 20
200.0029296875
 11
491.732421875
 21
202.33984375
 97
        0
 75
     2
 76
     1
 98
        0
  0
ENDBLK
  5
2C4
330
2C1
100
AcDbEntity
  8
0
100
AcDbBlockEnd
  0
BLOCK
  5
2CE
330
2CC
100
AcDbEntity
  8
0
100
AcDbBlockBegin
  2
BLOCK_85
 70
     0
 71
     0
 10
0.0
 20
0.0
 30
0.0
  3
BLOCK_85
  1

  0
MTEXT
  5
2D0
330
2CC
100
AcDbEntity
  8
MITOIT-MMEK0
 62
     3
100
AcDbMText
 10
456.48828125
 20
204.677734375
 30
0.0
 40
16.35678413391113
 41
0.0
 71
     7
 72
     1
  1
\fMyriad Pro|b0|i0|c0|p34;\W1;\U+00D822
  0
ENDBLK
  5
2CF
330
2CC
100
AcDbEntity
  8
0
100
AcDbBlockEnd
  0
BLOCK
  5
2D3
330
2D1
100
AcDbEntity
  8
0
100
AcDbBlockBegin
  2
BLOCK_86
 70
     0
 71
     0
 10
0.0
 20
0.0
 30
0.0
  3
BLOCK_86
  1

  0
POLYLINE
  5
2D5
330
2D1
100
AcDbEntity
  8
MITOIT-MMEK0
100
AcDb2dPolyline
 66
     1
 10
0.0
 20
0.0
 30
0.0
  0
VERTEX
  5
2D6
330
2D5
100
AcDbEntity
  8
MITOIT-MMEK0
100
AcDbVertex
100
AcDb2dVertex
 10
453.177734375
 20
287.4931640625
 30
0.0
  0
VERTEX
  5
2D7
330
2D5
100
AcDbEntity
  8
MITOIT-MMEK0
100
AcDbVertex
100
AcDb2dVertex
 10
453.177734375
 20
287.4931640625
 30
0.0
  0
SEQEND
  5
2D8
330
2D5
100
AcDbEntity
  8
MITOIT-MMEK0
  0
ENDBLK
  5
2D4
330
2D1
100
AcDbEntity
  8
0
100
AcDbBlockEnd
  0
BLOCK
  5
2DB
330
2D9
100
AcDbEntity
  8
0
100
AcDbBlockBegin
  2
BLOCK_87
 70
     0
 71
     0
 10
0.0
 20
0.0
 30
0.0
  3
BLOCK_87
  1

  0
POLYLINE
  5
2DD
330
2D9
100
AcDbEntity
  8
MITOIT-MMEK0
100
AcDb2dPolyline
 66
     1
 10
0.0
 20
0.0
 30
0.0
  0
VERTEX
  5
2DE
330
2DD
100
AcDbEntity
  8
MITOIT-MMEK0
100
AcDbVertex
100
AcDb2dVertex
 10
505.7529296875
 20
287.4931640625
 30
0.0
  0
VERTEX
  5
2DF
330
2DD
100
AcDbEntity
  8
MITOIT-MMEK0
100
AcDbVertex
100
AcDb2dVertex
 10
505.7529296875
 20
287.4931640625
 30
0.0
  0
SEQEND
  5
2E0
330
2DD
100
AcDbEntity
  8
MITOIT-MMEK0
  0
ENDBLK
  5
2DC
330
2D9
100
AcDbEntity
  8
0
100
AcDbBlockEnd
  0
BLOCK
  5
2E3
330
2E1
100
AcDbEntity
  8
0
100
AcDbBlockBegin
  2
BLOCK_88
 70
     0
 71
     0
 10
0.0
 20
0.0
 30
0.0
  3
BLOCK_88
  1

  0
POLYLINE
  5
2E5
330
2E1
100
AcDbEntity
  8
MITOIT-MMEK0
100
AcDb2dPolyline
 66
     1
 10
0.0
 20
0.0
 30
0.0
  0
VERTEX
  5
2E6
330
2E5
100
AcDbEntity
  8
MITOIT-MMEK0
100
AcDbVertex
100
AcDb2dVertex
 10
505.7529296875
 20
200.0029296875
 30
0.0
  0
VERTEX
  5
2E7
330
2E5
100
AcDbEntity
  8
MITOIT-MMEK0
100
AcDbVertex
100
AcDb2dVertex
 10
505.7529296875
 20
200.0029296875
 30
0.0
  0
SEQEND
  5
2E8
330
2E5
100
AcDbEntity
  8
MITOIT-MMEK0
  0
ENDBLK
  5
2E4
330
2E1
100
AcDbEntity
  8
0
100
AcDbBlockEnd
  0
BLOCK
  5
2EC
330
2EA
100
AcDbEntity
  8
0
100
AcDbBlockBegin
  2
BLOCK_89
 70
     0
 71
     0
 10
0.0
 20
0.0
 30
0.0
  3
BLOCK_89
  1

  0
POLYLINE
  5
2EE
330
2EA
100
AcDbEntity
  8
MUOTOV-VMEKO
 62
     4
100
AcDb2dPolyline
 66
     1
 10
0.0
 20
0.0
 30
0.0
  0
VERTEX
  5
2EF
330
2EE
100
AcDbEntity
  8
MUOTOV-VMEKO
 62
     4
100
AcDbVertex
100
AcDb2dVertex
 10
199.12353515625
 20
529.35546875
 30
0.0
  0
VERTEX
  5
2F0
330
2EE
100
AcDbEntity
  8
MUOTOV-VMEKO
 62
     4
100
AcDbVertex
100
AcDb2dVertex
 10
166.41015625
 20
529.35546875
 30
0.0
  0
SEQEND
  5
2F1
330
2EE
100
AcDbEntity
  8
MUOTOV-VMEKO
  0
ENDBLK
  5
2ED
330
2EA
100
AcDbEntity
  8
0
100
AcDbBlockEnd
  0
BLOCK
  5
2F4
330
2F2
100
AcDbEntity
  8
0
100
AcDbBlockBegin
  2
BLOCK_90
 70
     0
 71
     0
 10
0.0
 20
0.0
 30
0.0
  3
BLOCK_90
  1

  0
POLYLINE
  5
2F6
330
2F2
100
AcDbEntity
  8
MUOTOV-VMEKO
 62
     4
100
AcDb2dPolyline
 66
     1
 10
0.0
 20
0.0
 30
0.0
  0
VERTEX
  5
2F7
330
2F6
100
AcDbEntity
  8
MUOTOV-VMEKO
 62
     4
100
AcDbVertex
100
AcDb2dVertex
 10
232.6025390625
 20
529.35546875
 30
0.0
  0
VERTEX
  5
2F8
330
2F6
100
AcDbEntity
  8
MUOTOV-VMEKO
 62
     4
100
AcDbVertex
100
AcDb2dVertex
 10
140.70654296875
 20
529.35546875
 30
0.0
  0
SEQEND
  5
2F9
330
2F6
100
AcDbEntity
  8
MUOTOV-VMEKO
  0
ENDBLK
  5
2F5
330
2F2
100
AcDbEntity
  8
0
100
AcDbBlockEnd
  0
BLOCK
  5
2FC
330
2FA
100
AcDbEntity
  8
0
100
AcDbBlockBegin
  2
BLOCK_91
 70
     0
 71
     0
 10
0.0
 20
0.0
 30
0.0
  3
BLOCK_91
  1

  0
POLYLINE
  5
2FE
330
2FA
100
AcDbEntity
  8
MUOTOV-VMEKO
 62
     4
100
AcDb2dPolyline
 66
     1
 10
0.0
 20
0.0
 30
0.0
  0
VERTEX
  5
2FF
330
2FE
100
AcDbEntity
  8
MUOTOV-VMEKO
 62
     4
100
AcDbVertex
100
AcDb2dVertex
 10
164.3818359375
 20
241.9658203125
 30
0.0
  0
VERTEX
  5
300
330
2FE
100
AcDbEntity
  8
MUOTOV-VMEKO
 62
     4
100
AcDbVertex
100
AcDb2dVertex
 10
190.8974609375
 20
241.9658203125
 30
0.0
  0
SEQEND
  5
301
330
2FE
100
AcDbEntity
  8
MUOTOV-VMEKO
  0
ENDBLK
  5
2FD
330
2FA
100
AcDbEntity
  8
0
100
AcDbBlockEnd
  0
BLOCK
  5
304
330
302
100
AcDbEntity
  8
0
100
AcDbBlockBegin
  2
BLOCK_92
 70
     0
 71
     0
 10
0.0
 20
0.0
 30
0.0
  3
BLOCK_92
  1

  0
POLYLINE
  5
306
330
302
100
AcDbEntity
  8
MUOTOV-VMEKO
 62
     4
100
AcDb2dPolyline
 66
     1
 10
0.0
 20
0.0
 30
0.0
  0
VERTEX
  5
307
330
306
100
AcDbEntity
  8
MUOTOV-VMEKO
 62
     4
100
AcDbVertex
100
AcDb2dVertex
 10
164.3818359375
 20
265.2529296875
 30
0.0
  0
VERTEX
  5
308
330
306
100
AcDbEntity
  8
MUOTOV-VMEKO
 62
     4
100
AcDbVertex
100
AcDb2dVertex
 10
204.71630859375
 20
265.2529296875
 30
0.0
  0
SEQEND
  5
309
330
306
100
AcDbEntity
  8
MUOTOV-VMEKO
  0
ENDBLK
  5
305
330
302
100
AcDbEntity
  8
0
100
AcDbBlockEnd
  0
BLOCK
  5
30C
330
30A
100
AcDbEntity
  8
0
100
AcDbBlockBegin
  2
BLOCK_93
 70
     0
 71
     0
 10
0.0
 20
0.0
 30
0.0
  3
BLOCK_93
  1

  0
POLYLINE
  5
30E
330
30A
100
AcDbEntity
  8
MUOTOV-VMEKO
 62
     4
100
AcDb2dPolyline
 66
     1
 10
0.0
 20
0.0
 30
0.0
  0
VERTEX
  5
30F
330
30E
100
AcDbEntity
  8
MUOTOV-VMEKO
 62
     4
100
AcDbVertex
100
AcDb2dVertex
 10
163.501953125
 20
520.0087890625
 30
0.0
  0
VERTEX
  5
310
330
30E
100
AcDbEntity
  8
MUOTOV-VMEKO
 62
     4
100
AcDbVertex
100
AcDb2dVertex
 10
117.9111328125
 20
520.0087890625
 30
0.0
  0
SEQEND
  5
311
330
30E
100
AcDbEntity
  8
MUOTOV-VMEKO
  0
ENDBLK
  5
30D
330
30A
100
AcDbEntity
  8
0
100
AcDbBlockEnd
  0
BLOCK
  5
314
330
312
100
AcDbEntity
  8
0
100
AcDbBlockBegin
  2
BLOCK_94
 70
     0
 71
     0
 10
0.0
 20
0.0
 30
0.0
  3
BLOCK_94
  1

  0
POLYLINE
  5
316
330
312
100
AcDbEntity
  8
MUOTOV-VMEKO
 62
     4
100
AcDb2dPolyline
 66
     1
 10
0.0
 20
0.0
 30
0.0
  0
VERTEX
  5
317
330
316
100
AcDbEntity
  8
MUOTOV-VMEKO
 62
     4
100
AcDbVertex
100
AcDb2dVertex
 10
115.0029296875
 20
529.35546875
 30
0.0
  0
VERTEX
  5
318
330
316
100
AcDbEntity
  8
MUOTOV-VMEKO
 62
     4
100
AcDbVertex
100
AcDb2dVertex
 10
115.57470703125
 20
522.3046875
 30
0.0
  0
SEQEND
  5
319
330
316
100
AcDbEntity
  8
MUOTOV-VMEKO
  0
ENDBLK
  5
315
330
312
100
AcDbEntity
  8
0
100
AcDbBlockEnd
  0
BLOCK
  5
31C
330
31A
100
AcDbEntity
  8
0
100
AcDbBlockBegin
  2
BLOCK_95
 70
     0
 71
     0
 10
0.0
 20
0.0
 30
0.0
  3
BLOCK_95
  1

  0
SPLINE
  5
31E
330
31A
100
AcDbEntity
  8
MUOTOV-VMEKO
 62
     4
100
AcDbSpline
210
0.0
220
0.0
230
1.0
 70
     8
 71
     3
 72
     8
 73
     4
 74
     0
 42
0.0000000001
 43
0.0000000001
 40
0.0
 40
0.0
 40
0.0
 40
0.0
 40
1.0
 40
1.0
 40
1.0
 40
1.0
 10
115.57470703125
 20
522.3046875
 30
0.0
 10
115.59423828125
 20
521.03271484375
 30
0.0
 10
116.63916015625
 20
520.005859375
 30
0.0
 10
117.9111328125
 20
520.0087890625
 30
0.0
  0
ENDBLK
  5
31D
330
31A
100
AcDbEntity
  8
0
100
AcDbBlockEnd
  0
BLOCK
  5
321
330
31F
100
AcDbEntity
  8
0
100
AcDbBlockBegin
  2
BLOCK_96
 70
     0
 71
     0
 10
0.0
 20
0.0
 30
0.0
  3
BLOCK_96
  1

  0
POLYLINE
  5
323
330
31F
100
AcDbEntity
  8
MUOTOV-VMEKO
 62
     4
100
AcDb2dPolyline
 66
     1
 10
0.0
 20
0.0
 30
0.0
  0
VERTEX
  5
324
330
323
100
AcDbEntity
  8
MUOTOV-VMEKO
 62
     4
100
AcDbVertex
100
AcDb2dVertex
 10
166.41015625
 20
529.35546875
 30
0.0
  0
VERTEX
  5
325
330
323
100
AcDbEntity
  8
MUOTOV-VMEKO
 62
     4
100
AcDbVertex
100
AcDb2dVertex
 10
165.83837890625
 20
522.3046875
 30
0.0
  0
SEQEND
  5
326
330
323
100
AcDbEntity
  8
MUOTOV-VMEKO
  0
ENDBLK
  5
322
330
31F
100
AcDbEntity
  8
0
100
AcDbBlockEnd
  0
BLOCK
  5
329
330
327
100
AcDbEntity
  8
0
100
AcDbBlockBegin
  2
BLOCK_97
 70
     0
 71
     0
 10
0.0
 20
0.0
 30
0.0
  3
BLOCK_97
  1

  0
SPLINE
  5
32B
330
327
100
AcDbEntity
  8
MUOTOV-VMEKO
 62
     4
100
AcDbSpline
210
0.0
220
0.0
230
1.0
 70
     8
 71
     3
 72
     8
 73
     4
 74
     0
 42
0.0000000001
 43
0.0000000001
 40
0.0
 40
0.0
 40
0.0
 40
0.0
 40
1.0
 40
1.0
 40
1.0
 40
1.0
 10
163.501953125
 20
520.0087890625
 30
0.0
 10
164.7734375
 20
520.005859375
 30
0.0
 10
165.81884765625
 20
521.03271484375
 30
0.0
 10
165.83837890625
 20
522.3046875
 30
0.0
  0
ENDBLK
  5
32A
330
327
100
AcDbEntity
  8
0
100
AcDbBlockEnd
  0
BLOCK
  5
32E
330
32C
100
AcDbEntity
  8
0
100
AcDbBlockBegin
  2
BLOCK_98
 70
     0
 71
     0
 10
0.0
 20
0.0
 30
0.0
  3
BLOCK_98
  1

  0
POLYLINE
  5
330
330
32C
100
AcDbEntity
  8
MUOTOV-VMEKO
 62
     4
100
AcDb2dPolyline
 66
     1
 10
0.0
 20
0.0
 30
0.0
  0
VERTEX
  5
331
330
330
100
AcDbEntity
  8
MUOTOV-VMEKO
 62
     4
100
AcDbVertex
100
AcDb2dVertex
 10
115.0029296875
 20
529.35546875
 30
0.0
  0
VERTEX
  5
332
330
330
100
AcDbEntity
  8
MUOTOV-VMEKO
 62
     4
100
AcDbVertex
100
AcDb2dVertex
 10
82.28955078125
 20
529.35546875
 30
0.0
  0
SEQEND
  5
333
330
330
100
AcDbEntity
  8
MUOTOV-VMEKO
  0
ENDBLK
  5
32F
330
32C
100
AcDbEntity
  8
0
100
AcDbBlockEnd
  0
BLOCK
  5
336
330
334
100
AcDbEntity
  8
0
100
AcDbBlockBegin
  2
BLOCK_99
 70
     0
 71
     0
 10
0.0
 20
0.0
 30
0.0
  3
BLOCK_99
  1

  0
POLYLINE
  5
338
330
334
100
AcDbEntity
  8
MUOTOV-VMEKO
 62
     4
100
AcDb2dPolyline
 66
     1
 10
0.0
 20
0.0
 30
0.0
  0
VERTEX
  5
339
330
338
100
AcDbEntity
  8
MUOTOV-VMEKO
 62
     4
100
AcDbVertex
100
AcDb2dVertex
 10
115.0029296875
 20
529.35546875
 30
0.0
  0
VERTEX
  5
33A
330
338
100
AcDbEntity
  8
MUOTOV-VMEKO
 62
     4
100
AcDbVertex
100
AcDb2dVertex
 10
82.28955078125
 20
529.35546875
 30
0.0
  0
SEQEND
  5
33B
330
338
100
AcDbEntity
  8
MUOTOV-VMEKO
  0
ENDBLK
  5
337
330
334
100
AcDbEntity
  8
0
100
AcDbBlockEnd
  0
BLOCK
  5
33E
330
33C
100
AcDbEntity
  8
0
100
AcDbBlockBegin
  2
BLOCK_100
 70
     0
 71
     0
 10
0.0
 20
0.0
 30
0.0
  3
BLOCK_100
  1

  0
POLYLINE
  5
340
330
33C
100
AcDbEntity
  8
MUOTOV-VMEKO
 62
     4
100
AcDb2dPolyline
 66
     1
 10
0.0
 20
0.0
 30
0.0
  0
VERTEX
  5
341
330
340
100
AcDbEntity
  8
MUOTOV-VMEKO
 62
     4
100
AcDbVertex
100
AcDb2dVertex
 10
153.23486328125
 20
529.35546875
 30
0.0
  0
VERTEX
  5
342
330
340
100
AcDbEntity
  8
MUOTOV-VMEKO
 62
     4
100
AcDbVertex
100
AcDb2dVertex
 10
120.521484375
 20
529.35546875
 30
0.0
  0
SEQEND
  5
343
330
340
100
AcDbEntity
  8
MUOTOV-VMEKO
  0
ENDBLK
  5
33F
330
33C
100
AcDbEntity
  8
0
100
AcDbBlockEnd
  0
BLOCK
  5
346
330
344
100
AcDbEntity
  8
0
100
AcDbBlockBegin
  2
BLOCK_101
 70
     0
 71
     0
 10
0.0
 20
0.0
 30
0.0
  3
BLOCK_101
  1

  0
POLYLINE
  5
348
330
344
100
AcDbEntity
  8
MUOTOV-VMEKO
100
AcDb2dPolyline
 66
     1
 10
0.0
 20
0.0
 30
0.0
  0
VERTEX
  5
349
330
348
100
AcDbEntity
  8
MUOTOV-VMEKO
100
AcDbVertex
100
AcDb2dVertex
 10
198.98388671875
 20
529.35546875
 30
0.0
  0
VERTEX
  5
34A
330
348
100
AcDbEntity
  8
MUOTOV-VMEKO
100
AcDbVertex
100
AcDb2dVertex
 10
198.98388671875
 20
529.35546875
 30
0.0
  0
SEQEND
  5
34B
330
348
100
AcDbEntity
  8
MUOTOV-VMEKO
  0
ENDBLK
  5
347
330
344
100
AcDbEntity
  8
0
100
AcDbBlockEnd
  0
BLOCK
  5
34E
330
34C
100
AcDbEntity
  8
0
100
AcDbBlockBegin
  2
BLOCK_102
 70
     0
 71
     0
 10
0.0
 20
0.0
 30
0.0
  3
BLOCK_102
  1

  0
SPLINE
  5
350
330
34C
100
AcDbEntity
  8
MUOTOV-VMEKO
 62
     3
100
AcDbSpline
210
0.0
220
0.0
230
1.0
 70
    11
 71
     3
 72
    23
 73
    19
 74
     0
 42
0.0000000001
 43
0.0000000001
 40
0.0
 40
0.0
 40
0.0
 40
0.0
 40
1.0
 40
1.0
 40
1.0
 40
2.0
 40
2.0
 40
2.0
 40
3.0
 40
3.0
 40
3.0
 40
4.0
 40
4.0
 40
4.0
 40
5.0
 40
5.0
 40
5.0
 40
6.0
 40
6.0
 40
6.0
 40
6.0
 10
451.0927734375
 20
320.5390625
 30
0.0
 10
451.0927734375
 20
323.1201171875
 30
0.0
 10
449.0009765625
 20
325.212890625
 30
0.0
 10
446.419921875
 20
325.212890625
 30
0.0
 10
443.8388671875
 20
325.212890625
 30
0.0
 10
441.74609375
 20
323.1201171875
 30
0.0
 10
441.74609375
 20
320.5390625
 30
0.0
 10
441.74609375
 20
317.9580078125
 30
0.0
 10
443.8388671875
 20
315.8662109375
 30
0.0
 10
446.419921875
 20
315.8662109375
 30
0.0
 10
449.0009765625
 20
315.8662109375
 30
0.0
 10
451.0927734375
 20
317.9580078125
 30
0.0
 10
451.0927734375
 20
320.5390625
 30
0.0
 10
451.0927734375
 20
320.5390625
 30
0.0
 10
451.0927734375
 20
320.5390625
 30
0.0
 10
451.0927734375
 20
320.5390625
 30
0.0
 10
451.0927734375
 20
320.5390625
 30
0.0
 10
451.0927734375
 20
320.5390625
 30
0.0
 10
451.0927734375
 20
320.5390625
 30
0.0
  0
ENDBLK
  5
34F
330
34C
100
AcDbEntity
  8
0
100
AcDbBlockEnd
  0
BLOCK
  5
353
330
351
100
AcDbEntity
  8
0
100
AcDbBlockBegin
  2
BLOCK_103
 70
     0
 71
     0
 10
0.0
 20
0.0
 30
0.0
  3
BLOCK_103
  1

  0
SPLINE
  5
355
330
351
100
AcDbEntity
  8
MUOTOV-VMEKO
 62
     3
100
AcDbSpline
210
0.0
220
0.0
230
1.0
 70
    11
 71
     3
 72
    23
 73
    19
 74
     0
 42
0.0000000001
 43
0.0000000001
 40
0.0
 40
0.0
 40
0.0
 40
0.0
 40
1.0
 40
1.0
 40
1.0
 40
2.0
 40
2.0
 40
2.0
 40
3.0
 40
3.0
 40
3.0
 40
4.0
 40
4.0
 40
4.0
 40
5.0
 40
5.0
 40
5.0
 40
6.0
 40
6.0
 40
6.0
 40
6.0
 10
451.0927734375
 20
254.4482421875
 30
0.0
 10
451.0927734375
 20
257.029296875
 30
0.0
 10
449.0009765625
 20
259.12109375
 30
0.0
 10
446.419921875
 20
259.12109375
 30
0.0
 10
443.8388671875
 20
259.12109375
 30
0.0
 10
441.74609375
 20
257.029296875
 30
0.0
 10
441.74609375
 20
254.4482421875
 30
0.0
 10
441.74609375
 20
251.8671875
 30
0.0
 10
443.8388671875
 20
249.7744140625
 30
0.0
 10
446.419921875
 20
249.7744140625
 30
0.0
 10
449.0009765625
 20
249.7744140625
 30
0.0
 10
451.0927734375
 20
251.8671875
 30
0.0
 10
451.0927734375
 20
254.4482421875
 30
0.0
 10
451.0927734375
 20
254.4482421875
 30
0.0
 10
451.0927734375
 20
254.4482421875
 30
0.0
 10
451.0927734375
 20
254.4482421875
 30
0.0
 10
451.0927734375
 20
254.4482421875
 30
0.0
 10
451.0927734375
 20
254.4482421875
 30
0.0
 10
451.0927734375
 20
254.4482421875
 30
0.0
  0
ENDBLK
  5
354
330
351
100
AcDbEntity
  8
0
100
AcDbBlockEnd
  0
BLOCK
  5
358
330
356
100
AcDbEntity
  8
0
100
AcDbBlockBegin
  2
BLOCK_104
 70
     0
 71
     0
 10
0.0
 20
0.0
 30
0.0
  3
BLOCK_104
  1

  0
SPLINE
  5
35A
330
356
100
AcDbEntity
  8
MUOTOV-VMEKO
 62
     3
100
AcDbSpline
210
0.0
220
0.0
230
1.0
 70
    11
 71
     3
 72
    23
 73
    19
 74
     0
 42
0.0000000001
 43
0.0000000001
 40
0.0
 40
0.0
 40
0.0
 40
0.0
 40
1.0
 40
1.0
 40
1.0
 40
2.0
 40
2.0
 40
2.0
 40
3.0
 40
3.0
 40
3.0
 40
4.0
 40
4.0
 40
4.0
 40
5.0
 40
5.0
 40
5.0
 40
6.0
 40
6.0
 40
6.0
 40
6.0
 10
517.1845703125
 20
254.4482421875
 30
0.0
 10
517.1845703125
 20
257.029296875
 30
0.0
 10
515.091796875
 20
259.12109375
 30
0.0
 10
512.5107421875
 20
259.12109375
 30
0.0
 10
509.9296875
 20
259.12109375
 30
0.0
 10
507.837890625
 20
257.029296875
 30
0.0
 10
507.837890625
 20
254.4482421875
 30
0.0
 10
507.837890625
 20
251.8671875
 30
0.0
 10
509.9296875
 20
249.7744140625
 30
0.0
 10
512.5107421875
 20
249.7744140625
 30
0.0
 10
515.091796875
 20
249.7744140625
 30
0.0
 10
517.1845703125
 20
251.8671875
 30
0.0
 10
517.1845703125
 20
254.4482421875
 30
0.0
 10
517.1845703125
 20
254.4482421875
 30
0.0
 10
517.1845703125
 20
254.4482421875
 30
0.0
 10
517.1845703125
 20
254.4482421875
 30
0.0
 10
517.1845703125
 20
254.4482421875
 30
0.0
 10
517.1845703125
 20
254.4482421875
 30
0.0
 10
517.1845703125
 20
254.4482421875
 30
0.0
  0
ENDBLK
  5
359
330
356
100
AcDbEntity
  8
0
100
AcDbBlockEnd
  0
BLOCK
  5
35D
330
35B
100
AcDbEntity
  8
0
100
AcDbBlockBegin
  2
BLOCK_105
 70
     0
 71
     0
 10
0.0
 20
0.0
 30
0.0
  3
BLOCK_105
  1

  0
SPLINE
  5
35F
330
35B
100
AcDbEntity
  8
MUOTOV-VMEKO
 62
     3
100
AcDbSpline
210
0.0
220
0.0
230
1.0
 70
    11
 71
     3
 72
    23
 73
    19
 74
     0
 42
0.0000000001
 43
0.0000000001
 40
0.0
 40
0.0
 40
0.0
 40
0.0
 40
1.0
 40
1.0
 40
1.0
 40
2.0
 40
2.0
 40
2.0
 40
3.0
 40
3.0
 40
3.0
 40
4.0
 40
4.0
 40
4.0
 40
5.0
 40
5.0
 40
5.0
 40
6.0
 40
6.0
 40
6.0
 40
6.0
 10
517.1845703125
 20
320.5390625
 30
0.0
 10
517.1845703125
 20
323.1201171875
 30
0.0
 10
515.091796875
 20
325.212890625
 30
0.0
 10
512.5107421875
 20
325.212890625
 30
0.0
 10
509.9296875
 20
325.212890625
 30
0.0
 10
507.837890625
 20
323.1201171875
 30
0.0
 10
507.837890625
 20
320.5390625
 30
0.0
 10
507.837890625
 20
317.9580078125
 30
0.0
 10
509.9296875
 20
315.8662109375
 30
0.0
 10
512.5107421875
 20
315.8662109375
 30
0.0
 10
515.091796875
 20
315.8662109375
 30
0.0
 10
517.1845703125
 20
317.9580078125
 30
0.0
 10
517.1845703125
 20
320.5390625
 30
0.0
 10
517.1845703125
 20
320.5390625
 30
0.0
 10
517.1845703125
 20
320.5390625
 30
0.0
 10
517.1845703125
 20
320.5390625
 30
0.0
 10
517.1845703125
 20
320.5390625
 30
0.0
 10
517.1845703125
 20
320.5390625
 30
0.0
 10
517.1845703125
 20
320.5390625
 30
0.0
  0
ENDBLK
  5
35E
330
35B
100
AcDbEntity
  8
0
100
AcDbBlockEnd
  0
BLOCK
  5
362
330
360
100
AcDbEntity
  8
0
100
AcDbBlockBegin
  2
BLOCK_106
 70
     0
 71
     0
 10
0.0
 20
0.0
 30
0.0
  3
BLOCK_106
  1

  0
SPLINE
  5
364
330
360
100
AcDbEntity
  8
MUOTOV-VMEKO
 62
     4
100
AcDbSpline
210
0.0
220
0.0
230
1.0
 70
    11
 71
     3
 72
    23
 73
    19
 74
     0
 42
0.0000000001
 43
0.0000000001
 40
0.0
 40
0.0
 40
0.0
 40
0.0
 40
1.0
 40
1.0
 40
1.0
 40
2.0
 40
2.0
 40
2.0
 40
3.0
 40
3.0
 40
3.0
 40
4.0
 40
4.0
 40
4.0
 40
5.0
 40
5.0
 40
5.0
 40
6.0
 40
6.0
 40
6.0
 40
6.0
 10
505.1689453125
 20
287.4931640625
 30
0.0
 10
505.1689453125
 20
301.689453125
 30
0.0
 10
493.6611328125
 20
313.197265625
 30
0.0
 10
479.46484375
 20
313.197265625
 30
0.0
 10
465.26953125
 20
313.197265625
 30
0.0
 10
453.76171875
 20
301.689453125
 30
0.0
 10
453.76171875
 20
287.4931640625
 30
0.0
 10
453.76171875
 20
273.2978515625
 30
0.0
 10
465.26953125
 20
261.7900390625
 30
0.0
 10
479.46484375
 20
261.7900390625
 30
0.0
 10
493.6611328125
 20
261.7900390625
 30
0.0
 10
505.1689453125
 20
273.2978515625
 30
0.0
 10
505.1689453125
 20
287.4931640625
 30
0.0
 10
505.1689453125
 20
287.4931640625
 30
0.0
 10
505.1689453125
 20
287.4931640625
 30
0.0
 10
505.1689453125
 20
287.4931640625
 30
0.0
 10
505.1689453125
 20
287.4931640625
 30
0.0
 10
505.1689453125
 20
287.4931640625
 30
0.0
 10
505.1689453125
 20
287.4931640625
 30
0.0
  0
ENDBLK
  5
363
330
360
100
AcDbEntity
  8
0
100
AcDbBlockEnd
  0
BLOCK
  5
368
330
366
100
AcDbEntity
  8
0
100
AcDbBlockBegin
  2
BLOCK_107
 70
     0
 71
     0
 10
0.0
 20
0.0
 30
0.0
  3
BLOCK_107
  1

  0
POLYLINE
  5
36A
330
366
100
AcDbEntity
  8
MUOTOV-VMEK0
 62
     4
100
AcDb2dPolyline
 66
     1
 10
0.0
 20
0.0
 30
0.0
  0
VERTEX
  5
36B
330
36A
100
AcDbEntity
  8
MUOTOV-VMEK0
 62
     4
100
AcDbVertex
100
AcDb2dVertex
 10
71.30712890625
 20
582.341796875
 30
0.0
  0
VERTEX
  5
36C
330
36A
100
AcDbEntity
  8
MUOTOV-VMEK0
 62
     4
100
AcDbVertex
100
AcDb2dVertex
 10
210.10595703125
 20
582.341796875
 30
0.0
  0
SEQEND
  5
36D
330
36A
100
AcDbEntity
  8
MUOTOV-VMEK0
  0
ENDBLK
  5
369
330
366
100
AcDbEntity
  8
0
100
AcDbBlockEnd
  0
BLOCK
  5
370
330
36E
100
AcDbEntity
  8
0
100
AcDbBlockBegin
  2
BLOCK_108
 70
     0
 71
     0
 10
0.0
 20
0.0
 30
0.0
  3
BLOCK_108
  1

  0
SPLINE
  5
372
330
36E
100
AcDbEntity
  8
MUOTOV-VMEK0
 62
     4
100
AcDbSpline
210
0.0
220
0.0
230
1.0
 70
    11
 71
     3
 72
    23
 73
    19
 74
     0
 42
0.0000000001
 43
0.0000000001
 40
0.0
 40
0.0
 40
0.0
 40
0.0
 40
1.0
 40
1.0
 40
1.0
 40
2.0
 40
2.0
 40
2.0
 40
3.0
 40
3.0
 40
3.0
 40
4.0
 40
4.0
 40
4.0
 40
5.0
 40
5.0
 40
5.0
 40
6.0
 40
6.0
 40
6.0
 40
6.0
 10
210.10595703125
 20
287.4931640625
 30
0.0
 10
210.10595703125
 20
325.822265625
 30
0.0
 10
179.03466796875
 20
356.8935546875
 30
0.0
 10
140.70654296875
 20
356.8935546875
 30
0.0
 10
102.3779296875
 20
356.8935546875
 30
0.0
 10
71.30712890625
 20
325.822265625
 30
0.0
 10
71.30712890625
 20
287.4931640625
 30
0.0
 10
71.30712890625
 20
249.1650390625
 30
0.0
 10
102.3779296875
 20
218.09375
 30
0.0
 10
140.70654296875
 20
218.09375
 30
0.0
 10
179.03466796875
 20
218.09375
 30
0.0
 10
210.10595703125
 20
249.1650390625
 30
0.0
 10
210.10595703125
 20
287.4931640625
 30
0.0
 10
210.10595703125
 20
287.4931640625
 30
0.0
 10
210.10595703125
 20
287.4931640625
 30
0.0
 10
210.10595703125
 20
287.4931640625
 30
0.0
 10
210.10595703125
 20
287.4931640625
 30
0.0
 10
210.10595703125
 20
287.4931640625
 30
0.0
 10
210.10595703125
 20
287.4931640625
 30
0.0
  0
ENDBLK
  5
371
330
36E
100
AcDbEntity
  8
0
100
AcDbBlockEnd
  0
BLOCK
  5
375
330
373
100
AcDbEntity
  8
0
100
AcDbBlockBegin
  2
BLOCK_109
 70
     0
 71
     0
 10
0.0
 20
0.0
 30
0.0
  3
BLOCK_109
  1

  0
POLYLINE
  5
377
330
373
100
AcDbEntity
  8
MUOTOV-VMEK0
 62
     4
100
AcDb2dPolyline
 66
     1
 10
0.0
 20
0.0
 30
0.0
  0
VERTEX
  5
378
330
377
100
AcDbEntity
  8
MUOTOV-VMEK0
 62
     4
100
AcDbVertex
100
AcDb2dVertex
 10
76.681640625
 20
309.6923828125
 30
0.0
  0
VERTEX
  5
379
330
377
100
AcDbEntity
  8
MUOTOV-VMEK0
 62
     4
100
AcDbVertex
100
AcDb2dVertex
 10
204.73095703125
 20
309.6923828125
 30
0.0
  0
SEQEND
  5
37A
330
377
100
AcDbEntity
  8
MUOTOV-VMEK0
  0
ENDBLK
  5
376
330
373
100
AcDbEntity
  8
0
100
AcDbBlockEnd
  0
BLOCK
  5
37D
330
37B
100
AcDbEntity
  8
0
100
AcDbBlockBegin
  2
BLOCK_110
 70
     0
 71
     0
 10
0.0
 20
0.0
 30
0.0
  3
BLOCK_110
  1

  0
POLYLINE
  5
37F
330
37B
100
AcDbEntity
  8
MUOTOV-VMEK0
 62
     4
100
AcDb2dPolyline
 66
     1
 10
0.0
 20
0.0
 30
0.0
  0
VERTEX
  5
380
330
37F
100
AcDbEntity
  8
MUOTOV-VMEK0
 62
     4
100
AcDbVertex
100
AcDb2dVertex
 10
90.54931640625
 20
333.05859375
 30
0.0
  0
VERTEX
  5
381
330
37F
100
AcDbEntity
  8
MUOTOV-VMEK0
 62
     4
100
AcDbVertex
100
AcDb2dVertex
 10
190.86328125
 20
333.05859375
 30
0.0
  0
SEQEND
  5
382
330
37F
100
AcDbEntity
  8
MUOTOV-VMEK0
  0
ENDBLK
  5
37E
330
37B
100
AcDbEntity
  8
0
100
AcDbBlockEnd
  0
BLOCK
  5
385
330
383
100
AcDbEntity
  8
0
100
AcDbBlockBegin
  2
BLOCK_111
 70
     0
 71
     0
 10
0.0
 20
0.0
 30
0.0
  3
BLOCK_111
  1

  0
SPLINE
  5
387
330
383
100
AcDbEntity
  8
MUOTOV-VMEK0
 62
     4
100
AcDbSpline
210
0.0
220
0.0
230
1.0
 70
     8
 71
     3
 72
    17
 73
    13
 74
     0
 42
0.0000000001
 43
0.0000000001
 40
0.0
 40
0.0
 40
0.0
 40
0.0
 40
1.0
 40
1.0
 40
1.0
 40
2.0
 40
2.0
 40
2.0
 40
3.0
 40
3.0
 40
3.0
 40
4.0
 40
4.0
 40
4.0
 40
4.0
 10
206.517578125
 20
303.6435546875
 30
0.0
 10
197.5986328125
 20
339.990234375
 30
0.0
 10
160.9033203125
 20
362.2236328125
 30
0.0
 10
124.556640625
 20
353.3046875
 30
0.0
 10
88.21044921875
 20
344.3857421875
 30
0.0
 10
65.97607421875
 20
307.6904296875
 30
0.0
 10
74.89501953125
 20
271.34375
 30
0.0
 10
83.814453125
 20
234.9970703125
 30
0.0
 10
120.50927734375
 20
212.7626953125
 30
0.0
 10
156.85595703125
 20
221.6826171875
 30
0.0
 10
179.8623046875
 20
226.193359375
 30
0.0
 10
202.0068359375
 20
248.337890625
 30
0.0
 10
206.517578125
 20
271.34375
 30
0.0
  0
ENDBLK
  5
386
330
383
100
AcDbEntity
  8
0
100
AcDbBlockEnd
  0
BLOCK
  5
38A
330
388
100
AcDbEntity
  8
0
100
AcDbBlockBegin
  2
BLOCK_112
 70
     0
 71
     0
 10
0.0
 20
0.0
 30
0.0
  3
BLOCK_112
  1

  0
SPLINE
  5
38C
330
388
100
AcDbEntity
  8
MUOTOV-VMEK0
 62
     4
100
AcDbSpline
210
0.0
220
0.0
230
1.0
 70
    11
 71
     3
 72
    23
 73
    19
 74
     0
 42
0.0000000001
 43
0.0000000001
 40
0.0
 40
0.0
 40
0.0
 40
0.0
 40
1.0
 40
1.0
 40
1.0
 40
2.0
 40
2.0
 40
2.0
 40
3.0
 40
3.0
 40
3.0
 40
4.0
 40
4.0
 40
4.0
 40
5.0
 40
5.0
 40
5.0
 40
6.0
 40
6.0
 40
6.0
 40
6.0
 10
228.33203125
 20
287.4931640625
 30
0.0
 10
228.33203125
 20
335.8876953125
 30
0.0
 10
189.1005859375
 20
375.119140625
 30
0.0
 10
140.70654296875
 20
375.119140625
 30
0.0
 10
92.31201171875
 20
375.119140625
 30
0.0
 10
53.08056640625
 20
335.8876953125
 30
0.0
 10
53.08056640625
 20
287.4931640625
 30
0.0
 10
53.08056640625
 20
239.099609375
 30
0.0
 10
92.31201171875
 20
199.8681640625
 30
0.0
 10
140.70654296875
 20
199.8681640625
 30
0.0
 10
189.1005859375
 20
199.8681640625
 30
0.0
 10
228.33203125
 20
239.099609375
 30
0.0
 10
228.33203125
 20
287.4931640625
 30
0.0
 10
228.33203125
 20
287.4931640625
 30
0.0
 10
228.33203125
 20
287.4931640625
 30
0.0
 10
228.33203125
 20
287.4931640625
 30
0.0
 10
228.33203125
 20
287.4931640625
 30
0.0
 10
228.33203125
 20
287.4931640625
 30
0.0
 10
228.33203125
 20
287.4931640625
 30
0.0
  0
ENDBLK
  5
38B
330
388
100
AcDbEntity
  8
0
100
AcDbBlockEnd
  0
BLOCK
  5
38F
330
38D
100
AcDbEntity
  8
0
100
AcDbBlockBegin
  2
BLOCK_113
 70
     0
 71
     0
 10
0.0
 20
0.0
 30
0.0
  3
BLOCK_113
  1

  0
SPLINE
  5
391
330
38D
100
AcDbEntity
  8
MUOTOV-VMEK0
 62
     4
100
AcDbSpline
210
0.0
220
0.0
230
1.0
 70
    11
 71
     3
 72
    23
 73
    19
 74
     0
 42
0.0000000001
 43
0.0000000001
 40
0.0
 40
0.0
 40
0.0
 40
0.0
 40
1.0
 40
1.0
 40
1.0
 40
2.0
 40
2.0
 40
2.0
 40
3.0
 40
3.0
 40
3.0
 40
4.0
 40
4.0
 40
4.0
 40
5.0
 40
5.0
 40
5.0
 40
6.0
 40
6.0
 40
6.0
 40
6.0
 10
232.6083984375
 20
287.4931640625
 30
0.0
 10
232.6083984375
 20
338.25
 30
0.0
 10
191.46240234375
 20
379.3955078125
 30
0.0
 10
140.70654296875
 20
379.3955078125
 30
0.0
 10
89.95068359375
 20
379.3955078125
 30
0.0
 10
48.8046875
 20
338.25
 30
0.0
 10
48.8046875
 20
287.4931640625
 30
0.0
 10
48.8046875
 20
236.7373046875
 30
0.0
 10
89.95068359375
 20
195.591796875
 30
0.0
 10
140.70654296875
 20
195.591796875
 30
0.0
 10
191.46240234375
 20
195.591796875
 30
0.0
 10
232.6083984375
 20
236.7373046875
 30
0.0
 10
232.6083984375
 20
287.4931640625
 30
0.0
 10
232.6083984375
 20
287.4931640625
 30
0.0
 10
232.6083984375
 20
287.4931640625
 30
0.0
 10
232.6083984375
 20
287.4931640625
 30
0.0
 10
232.6083984375
 20
287.4931640625
 30
0.0
 10
232.6083984375
 20
287.4931640625
 30
0.0
 10
232.6083984375
 20
287.4931640625
 30
0.0
  0
ENDBLK
  5
390
330
38D
100
AcDbEntity
  8
0
100
AcDbBlockEnd
  0
BLOCK
  5
394
330
392
100
AcDbEntity
  8
0
100
AcDbBlockBegin
  2
BLOCK_114
 70
     0
 71
     0
 10
0.0
 20
0.0
 30
0.0
  3
BLOCK_114
  1

  0
SPLINE
  5
396
330
392
100
AcDbEntity
  8
MUOTOV-VMEK0
 62
     4
100
AcDbSpline
210
0.0
220
0.0
230
1.0
 70
     8
 71
     3
 72
     8
 73
     4
 74
     0
 42
0.0000000001
 43
0.0000000001
 40
0.0
 40
0.0
 40
0.0
 40
0.0
 40
1.0
 40
1.0
 40
1.0
 40
1.0
 10
280.19580078125
 20
623.546875
 30
0.0
 10
229.42138671875
 20
626.54052734375
 30
0.0
 10
131.890625
 20
624.53466796875
 30
0.0
 10
81.2822265625
 20
619.45556640625
 30
0.0
  0
ENDBLK
  5
395
330
392
100
AcDbEntity
  8
0
100
AcDbBlockEnd
  0
BLOCK
  5
399
330
397
100
AcDbEntity
  8
0
100
AcDbBlockBegin
  2
BLOCK_115
 70
     0
 71
     0
 10
0.0
 20
0.0
 30
0.0
  3
BLOCK_115
  1

  0
POLYLINE
  5
39B
330
397
100
AcDbEntity
  8
MUOTOV-VMEK0
 62
     4
100
AcDb2dPolyline
 66
     1
 10
0.0
 20
0.0
 30
0.0
  0
VERTEX
  5
39C
330
39B
100
AcDbEntity
  8
MUOTOV-VMEK0
 62
     4
100
AcDbVertex
100
AcDb2dVertex
 10
84.755859375
 20
301.513671875
 30
0.0
  0
VERTEX
  5
39D
330
39B
100
AcDbEntity
  8
MUOTOV-VMEK0
 62
     4
100
AcDbVertex
100
AcDb2dVertex
 10
268.77978515625
 20
301.513671875
 30
0.0
  0
SEQEND
  5
39E
330
39B
100
AcDbEntity
  8
MUOTOV-VMEK0
  0
ENDBLK
  5
39A
330
397
100
AcDbEntity
  8
0
100
AcDbBlockEnd
  0
BLOCK
  5
3A1
330
39F
100
AcDbEntity
  8
0
100
AcDbBlockBegin
  2
BLOCK_116
 70
     0
 71
     0
 10
0.0
 20
0.0
 30
0.0
  3
BLOCK_116
  1

  0
POLYLINE
  5
3A3
330
39F
100
AcDbEntity
  8
MUOTOV-VMEK0
 62
     4
100
AcDb2dPolyline
 66
     1
 10
0.0
 20
0.0
 30
0.0
  0
VERTEX
  5
3A4
330
3A3
100
AcDbEntity
  8
MUOTOV-VMEK0
 62
     4
100
AcDbVertex
100
AcDb2dVertex
 10
84.755859375
 20
273.4736328125
 30
0.0
  0
VERTEX
  5
3A5
330
3A3
100
AcDbEntity
  8
MUOTOV-VMEK0
 62
     4
100
AcDbVertex
100
AcDb2dVertex
 10
268.77978515625
 20
273.4736328125
 30
0.0
  0
SEQEND
  5
3A6
330
3A3
100
AcDbEntity
  8
MUOTOV-VMEK0
  0
ENDBLK
  5
3A2
330
39F
100
AcDbEntity
  8
0
100
AcDbBlockEnd
  0
BLOCK
  5
3A9
330
3A7
100
AcDbEntity
  8
0
100
AcDbBlockBegin
  2
BLOCK_117
 70
     0
 71
     0
 10
0.0
 20
0.0
 30
0.0
  3
BLOCK_117
  1

  0
POLYLINE
  5
3AB
330
3A7
100
AcDbEntity
  8
MUOTOV-VMEK0
 62
     4
100
AcDb2dPolyline
 66
     1
 10
0.0
 20
0.0
 30
0.0
  0
VERTEX
  5
3AC
330
3AB
100
AcDbEntity
  8
MUOTOV-VMEK0
 62
     4
100
AcDbVertex
100
AcDb2dVertex
 10
271.4677734375
 20
271.34375
 30
0.0
  0
VERTEX
  5
3AD
330
3AB
100
AcDbEntity
  8
MUOTOV-VMEK0
 62
     4
100
AcDbVertex
100
AcDb2dVertex
 10
74.89501953125
 20
271.34375
 30
0.0
  0
SEQEND
  5
3AE
330
3AB
100
AcDbEntity
  8
MUOTOV-VMEK0
  0
ENDBLK
  5
3AA
330
3A7
100
AcDbEntity
  8
0
100
AcDbBlockEnd
  0
BLOCK
  5
3B1
330
3AF
100
AcDbEntity
  8
0
100
AcDbBlockBegin
  2
BLOCK_118
 70
     0
 71
     0
 10
0.0
 20
0.0
 30
0.0
  3
BLOCK_118
  1

  0
POLYLINE
  5
3B3
330
3AF
100
AcDbEntity
  8
MUOTOV-VMEK0
 62
     4
100
AcDb2dPolyline
 66
     1
 10
0.0
 20
0.0
 30
0.0
  0
VERTEX
  5
3B4
330
3B3
100
AcDbEntity
  8
MUOTOV-VMEK0
 62
     4
100
AcDbVertex
100
AcDb2dVertex
 10
271.4677734375
 20
303.6435546875
 30
0.0
  0
VERTEX
  5
3B5
330
3B3
100
AcDbEntity
  8
MUOTOV-VMEK0
 62
     4
100
AcDbVertex
100
AcDb2dVertex
 10
74.89501953125
 20
303.6435546875
 30
0.0
  0
SEQEND
  5
3B6
330
3B3
100
AcDbEntity
  8
MUOTOV-VMEK0
  0
ENDBLK
  5
3B2
330
3AF
100
AcDbEntity
  8
0
100
AcDbBlockEnd
  0
BLOCK
  5
3B9
330
3B7
100
AcDbEntity
  8
0
100
AcDbBlockBegin
  2
BLOCK_119
 70
     0
 71
     0
 10
0.0
 20
0.0
 30
0.0
  3
BLOCK_119
  1

  0
SPLINE
  5
3BB
330
3B7
100
AcDbEntity
  8
MUOTOV-VMEK0
 62
     4
100
AcDbSpline
210
0.0
220
0.0
230
1.0
 70
    11
 71
     3
 72
    23
 73
    19
 74
     0
 42
0.0000000001
 43
0.0000000001
 40
0.0
 40
0.0
 40
0.0
 40
0.0
 40
1.0
 40
1.0
 40
1.0
 40
2.0
 40
2.0
 40
2.0
 40
3.0
 40
3.0
 40
3.0
 40
4.0
 40
4.0
 40
4.0
 40
5.0
 40
5.0
 40
5.0
 40
6.0
 40
6.0
 40
6.0
 40
6.0
 10
144.79541015625
 20
543.37548828125
 30
0.0
 10
144.79541015625
 20
545.6337890625
 30
0.0
 10
142.96484375
 20
547.46484375
 30
0.0
 10
140.70654296875
 20
547.46484375
 30
0.0
 10
138.4482421875
 20
547.46484375
 30
0.0
 10
136.6171875
 20
545.6337890625
 30
0.0
 10
136.6171875
 20
543.37548828125
 30
0.0
 10
136.6171875
 20
541.1171875
 30
0.0
 10
138.4482421875
 20
539.2861328125
 30
0.0
 10
140.70654296875
 20
539.2861328125
 30
0.0
 10
142.96484375
 20
539.2861328125
 30
0.0
 10
144.79541015625
 20
541.1171875
 30
0.0
 10
144.79541015625
 20
543.37548828125
 30
0.0
 10
144.79541015625
 20
543.37548828125
 30
0.0
 10
144.79541015625
 20
543.37548828125
 30
0.0
 10
144.79541015625
 20
543.37548828125
 30
0.0
 10
144.79541015625
 20
543.37548828125
 30
0.0
 10
144.79541015625
 20
543.37548828125
 30
0.0
 10
144.79541015625
 20
543.37548828125
 30
0.0
  0
ENDBLK
  5
3BA
330
3B7
100
AcDbEntity
  8
0
100
AcDbBlockEnd
  0
BLOCK
  5
3BE
330
3BC
100
AcDbEntity
  8
0
100
AcDbBlockBegin
  2
BLOCK_120
 70
     0
 71
     0
 10
0.0
 20
0.0
 30
0.0
  3
BLOCK_120
  1

  0
SPLINE
  5
3C0
330
3BC
100
AcDbEntity
  8
MUOTOV-VMEK0
 62
     4
100
AcDbSpline
210
0.0
220
0.0
230
1.0
 70
     8
 71
     3
 72
    14
 73
    10
 74
     0
 42
0.0000000001
 43
0.0000000001
 40
0.0
 40
0.0
 40
0.0
 40
0.0
 40
1.0
 40
1.0
 40
1.0
 40
2.0
 40
2.0
 40
2.0
 40
3.0
 40
3.0
 40
3.0
 40
3.0
 10
164.3818359375
 20
241.9658203125
 30
0.0
 10
164.3818359375
 20
241.9658203125
 30
0.0
 10
164.3818359375
 20
241.9658203125
 30
0.0
 10
164.3818359375
 20
241.9658203125
 30
0.0
 10
151.9375
 20
241.9658203125
 30
0.0
 10
141.849609375
 20
247.1787109375
 30
0.0
 10
141.849609375
 20
253.609375
 30
0.0
 10
141.849609375
 20
260.0400390625
 30
0.0
 10
151.9375
 20
265.2529296875
 30
0.0
 10
164.3818359375
 20
265.2529296875
 30
0.0
  0
ENDBLK
  5
3BF
330
3BC
100
AcDbEntity
  8
0
100
AcDbBlockEnd
  0
BLOCK
  5
3C3
330
3C1
100
AcDbEntity
  8
0
100
AcDbBlockBegin
  2
BLOCK_121
 70
     0
 71
     0
 10
0.0
 20
0.0
 30
0.0
  3
BLOCK_121
  1

  0
SPLINE
  5
3C5
330
3C1
100
AcDbEntity
  8
MUOTOV-VMEK0
 62
     4
100
AcDbSpline
210
0.0
220
0.0
230
1.0
 70
     8
 71
     3
 72
     8
 73
     4
 74
     0
 42
0.0000000001
 43
0.0000000001
 40
0.0
 40
0.0
 40
0.0
 40
0.0
 40
1.0
 40
1.0
 40
1.0
 40
1.0
 10
71.30712890625
 20
582.341796875
 30
0.0
 10
66.9677734375
 20
581.5556640625
 30
0.0
 10
58.4775390625
 20
579.7451171875
 30
0.0
 10
54.19482421875
 20
578.6923828125
 30
0.0
  0
ENDBLK
  5
3C4
330
3C1
100
AcDbEntity
  8
0
100
AcDbBlockEnd
  0
BLOCK
  5
3C8
330
3C6
100
AcDbEntity
  8
0
100
AcDbBlockBegin
  2
BLOCK_122
 70
     0
 71
     0
 10
0.0
 20
0.0
 30
0.0
  3
BLOCK_122
  1

  0
SPLINE
  5
3CA
330
3C6
100
AcDbEntity
  8
MUOTOV-VMEK0
 62
     4
100
AcDbSpline
210
0.0
220
0.0
230
1.0
 70
     8
 71
     3
 72
     8
 73
     4
 74
     0
 42
0.0000000001
 43
0.0000000001
 40
0.0
 40
0.0
 40
0.0
 40
0.0
 40
1.0
 40
1.0
 40
1.0
 40
1.0
 10
52.94873046875
 20
577.2890625
 30
0.0
 10
51.43359375
 20
565.22509765625
 30
0.0
 10
49.4443359375
 20
541.50244140625
 30
0.0
 10
48.92919921875
 20
529.35546875
 30
0.0
  0
ENDBLK
  5
3C9
330
3C6
100
AcDbEntity
  8
0
100
AcDbBlockEnd
  0
BLOCK
  5
3CD
330
3CB
100
AcDbEntity
  8
0
100
AcDbBlockBegin
  2
BLOCK_123
 70
     0
 71
     0
 10
0.0
 20
0.0
 30
0.0
  3
BLOCK_123
  1

  0
SPLINE
  5
3CF
330
3CB
100
AcDbEntity
  8
MUOTOV-VMEK0
 62
     4
100
AcDbSpline
210
0.0
220
0.0
230
1.0
 70
     8
 71
     3
 72
     8
 73
     4
 74
     0
 42
0.0000000001
 43
0.0000000001
 40
0.0
 40
0.0
 40
0.0
 40
0.0
 40
1.0
 40
1.0
 40
1.0
 40
1.0
 10
54.19482421875
 20
578.6923828125
 30
0.0
 10
53.5537109375
 20
578.56494140625
 30
0.0
 10
52.99951171875
 20
577.94091796875
 30
0.0
 10
52.94873046875
 20
577.2890625
 30
0.0
  0
ENDBLK
  5
3CE
330
3CB
100
AcDbEntity
  8
0
100
AcDbBlockEnd
  0
BLOCK
  5
3D2
330
3D0
100
AcDbEntity
  8
0
100
AcDbBlockBegin
  2
BLOCK_124
 70
     0
 71
     0
 10
0.0
 20
0.0
 30
0.0
  3
BLOCK_124
  1

  0
SPLINE
  5
3D4
330
3D0
100
AcDbEntity
  8
MUOTOV-VMEK0
 62
     4
100
AcDbSpline
210
0.0
220
0.0
230
1.0
 70
     8
 71
     3
 72
     8
 73
     4
 74
     0
 42
0.0000000001
 43
0.0000000001
 40
0.0
 40
0.0
 40
0.0
 40
0.0
 40
1.0
 40
1.0
 40
1.0
 40
1.0
 10
81.2822265625
 20
619.45556640625
 30
0.0
 10
80.7958984375
 20
619.43212890625
 30
0.0
 10
80.33203125
 20
619.03125
 30
0.0
 10
80.23876953125
 20
618.55322265625
 30
0.0
  0
ENDBLK
  5
3D3
330
3D0
100
AcDbEntity
  8
0
100
AcDbBlockEnd
  0
BLOCK
  5
3D7
330
3D5
100
AcDbEntity
  8
0
100
AcDbBlockBegin
  2
BLOCK_125
 70
     0
 71
     0
 10
0.0
 20
0.0
 30
0.0
  3
BLOCK_125
  1

  0
SPLINE
  5
3D9
330
3D5
100
AcDbEntity
  8
MUOTOV-VMEK0
 62
     4
100
AcDbSpline
210
0.0
220
0.0
230
1.0
 70
     8
 71
     3
 72
     8
 73
     4
 74
     0
 42
0.0000000001
 43
0.0000000001
 40
0.0
 40
0.0
 40
0.0
 40
0.0
 40
1.0
 40
1.0
 40
1.0
 40
1.0
 10
80.23876953125
 20
618.55322265625
 30
0.0
 10
78.0849609375
 20
609.54345703125
 30
0.0
 10
74.46826171875
 20
591.70458984375
 30
0.0
 10
72.9423828125
 20
582.5673828125
 30
0.0
  0
ENDBLK
  5
3D8
330
3D5
100
AcDbEntity
  8
0
100
AcDbBlockEnd
  0
BLOCK
  5
3DC
330
3DA
100
AcDbEntity
  8
0
100
AcDbBlockBegin
  2
BLOCK_126
 70
     0
 71
     0
 10
0.0
 20
0.0
 30
0.0
  3
BLOCK_126
  1

  0
POLYLINE
  5
3DE
330
3DA
100
AcDbEntity
  8
MUOTOV-VMEK0
 62
     4
100
AcDb2dPolyline
 66
     1
 10
0.0
 20
0.0
 30
0.0
  0
VERTEX
  5
3DF
330
3DE
100
AcDbEntity
  8
MUOTOV-VMEK0
 62
     4
100
AcDbVertex
100
AcDb2dVertex
 10
84.755859375
 20
273.4736328125
 30
0.0
  0
VERTEX
  5
3E0
330
3DE
100
AcDbEntity
  8
MUOTOV-VMEK0
 62
     4
100
AcDbVertex
100
AcDb2dVertex
 10
74.89501953125
 20
271.34375
 30
0.0
  0
SEQEND
  5
3E1
330
3DE
100
AcDbEntity
  8
MUOTOV-VMEK0
  0
ENDBLK
  5
3DD
330
3DA
100
AcDbEntity
  8
0
100
AcDbBlockEnd
  0
BLOCK
  5
3E4
330
3E2
100
AcDbEntity
  8
0
100
AcDbBlockBegin
  2
BLOCK_127
 70
     0
 71
     0
 10
0.0
 20
0.0
 30
0.0
  3
BLOCK_127
  1

  0
POLYLINE
  5
3E6
330
3E2
100
AcDbEntity
  8
MUOTOV-VMEK0
 62
     4
100
AcDb2dPolyline
 66
     1
 10
0.0
 20
0.0
 30
0.0
  0
VERTEX
  5
3E7
330
3E6
100
AcDbEntity
  8
MUOTOV-VMEK0
 62
     4
100
AcDbVertex
100
AcDb2dVertex
 10
84.755859375
 20
301.513671875
 30
0.0
  0
VERTEX
  5
3E8
330
3E6
100
AcDbEntity
  8
MUOTOV-VMEK0
 62
     4
100
AcDbVertex
100
AcDb2dVertex
 10
74.89501953125
 20
303.6435546875
 30
0.0
  0
SEQEND
  5
3E9
330
3E6
100
AcDbEntity
  8
MUOTOV-VMEK0
  0
ENDBLK
  5
3E5
330
3E2
100
AcDbEntity
  8
0
100
AcDbBlockEnd
  0
BLOCK
  5
3EC
330
3EA
100
AcDbEntity
  8
0
100
AcDbBlockBegin
  2
BLOCK_128
 70
     0
 71
     0
 10
0.0
 20
0.0
 30
0.0
  3
BLOCK_128
  1

  0
SPLINE
  5
3EE
330
3EA
100
AcDbEntity
  8
MUOTOV-VMEK0
 62
     4
100
AcDbSpline
210
0.0
220
0.0
230
1.0
 70
     8
 71
     3
 72
    14
 73
    10
 74
     0
 42
0.0000000001
 43
0.0000000001
 40
0.0
 40
0.0
 40
0.0
 40
0.0
 40
1.0
 40
1.0
 40
1.0
 40
2.0
 40
2.0
 40
2.0
 40
3.0
 40
3.0
 40
3.0
 40
3.0
 10
111.1689453125
 20
282.8232421875
 30
0.0
 10
113.74853515625
 20
282.734375
 30
0.0
 10
115.91162109375
 20
284.7529296875
 30
0.0
 10
116.00048828125
 20
287.33203125
 30
0.0
 10
116.08984375
 20
289.912109375
 30
0.0
 10
114.07080078125
 20
292.0751953125
 30
0.0
 10
111.4912109375
 20
292.1640625
 30
0.0
 10
111.40966796875
 20
292.16796875
 30
0.0
 10
111.25048828125
 20
292.16796875
 30
0.0
 10
111.1689453125
 20
292.1640625
 30
0.0
  0
ENDBLK
  5
3ED
330
3EA
100
AcDbEntity
  8
0
100
AcDbBlockEnd
  0
BLOCK
  5
3F1
330
3EF
100
AcDbEntity
  8
0
100
AcDbBlockBegin
  2
BLOCK_129
 70
     0
 71
     0
 10
0.0
 20
0.0
 30
0.0
  3
BLOCK_129
  1

  0
POLYLINE
  5
3F3
330
3EF
100
AcDbEntity
  8
MUOTOV-VMEK0
 62
     4
100
AcDb2dPolyline
 66
     1
 10
0.0
 20
0.0
 30
0.0
  0
VERTEX
  5
3F4
330
3F3
100
AcDbEntity
  8
MUOTOV-VMEK0
 62
     4
100
AcDbVertex
100
AcDb2dVertex
 10
111.4912109375
 20
292.1640625
 30
0.0
  0
VERTEX
  5
3F5
330
3F3
100
AcDbEntity
  8
MUOTOV-VMEK0
 62
     4
100
AcDbVertex
100
AcDb2dVertex
 10
83.451171875
 20
292.1640625
 30
0.0
  0
SEQEND
  5
3F6
330
3F3
100
AcDbEntity
  8
MUOTOV-VMEK0
  0
ENDBLK
  5
3F2
330
3EF
100
AcDbEntity
  8
0
100
AcDbBlockEnd
  0
BLOCK
  5
3F9
330
3F7
100
AcDbEntity
  8
0
100
AcDbBlockBegin
  2
BLOCK_130
 70
     0
 71
     0
 10
0.0
 20
0.0
 30
0.0
  3
BLOCK_130
  1

  0
POLYLINE
  5
3FB
330
3F7
100
AcDbEntity
  8
MUOTOV-VMEK0
 62
     4
100
AcDb2dPolyline
 66
     1
 10
0.0
 20
0.0
 30
0.0
  0
VERTEX
  5
3FC
330
3FB
100
AcDbEntity
  8
MUOTOV-VMEK0
 62
     4
100
AcDbVertex
100
AcDb2dVertex
 10
111.4912109375
 20
282.8232421875
 30
0.0
  0
VERTEX
  5
3FD
330
3FB
100
AcDbEntity
  8
MUOTOV-VMEK0
 62
     4
100
AcDbVertex
100
AcDb2dVertex
 10
83.451171875
 20
282.8232421875
 30
0.0
  0
SEQEND
  5
3FE
330
3FB
100
AcDbEntity
  8
MUOTOV-VMEK0
  0
ENDBLK
  5
3FA
330
3F7
100
AcDbEntity
  8
0
100
AcDbBlockEnd
  0
BLOCK
  5
401
330
3FF
100
AcDbEntity
  8
0
100
AcDbBlockBegin
  2
BLOCK_131
 70
     0
 71
     0
 10
0.0
 20
0.0
 30
0.0
  3
BLOCK_131
  1

  0
SPLINE
  5
403
330
3FF
100
AcDbEntity
  8
MUOTOV-VMEK0
 62
     4
100
AcDbSpline
210
0.0
220
0.0
230
1.0
 70
     8
 71
     3
 72
     8
 73
     4
 74
     0
 42
0.0000000001
 43
0.0000000001
 40
0.0
 40
0.0
 40
0.0
 40
0.0
 40
1.0
 40
1.0
 40
1.0
 40
1.0
 10
84.755859375
 20
301.513671875
 30
0.0
 10
82.80126953125
 20
294.091796875
 30
0.0
 10
82.80126953125
 20
280.8955078125
 30
0.0
 10
84.755859375
 20
273.4736328125
 30
0.0
  0
ENDBLK
  5
402
330
3FF
100
AcDbEntity
  8
0
100
AcDbBlockEnd
  0
BLOCK
  5
406
330
404
100
AcDbEntity
  8
0
100
AcDbBlockBegin
  2
BLOCK_132
 70
     0
 71
     0
 10
0.0
 20
0.0
 30
0.0
  3
BLOCK_132
  1

  0
SPLINE
  5
408
330
404
100
AcDbEntity
  8
MUOTOV-VMEK0
 62
     4
100
AcDbSpline
210
0.0
220
0.0
230
1.0
 70
     8
 71
     3
 72
     8
 73
     4
 74
     0
 42
0.0000000001
 43
0.0000000001
 40
0.0
 40
0.0
 40
0.0
 40
0.0
 40
1.0
 40
1.0
 40
1.0
 40
1.0
 10
81.650390625
 20
309.6923828125
 30
0.0
 10
81.0576171875
 20
308.1875
 30
0.0
 10
80.107421875
 20
305.2119140625
 30
0.0
 10
79.7177734375
 20
303.6435546875
 30
0.0
  0
ENDBLK
  5
407
330
404
100
AcDbEntity
  8
0
100
AcDbBlockEnd
  0
BLOCK
  5
40B
330
409
100
AcDbEntity
  8
0
100
AcDbBlockBegin
  2
BLOCK_133
 70
     0
 71
     0
 10
0.0
 20
0.0
 30
0.0
  3
BLOCK_133
  1

  0
POLYLINE
  5
40D
330
409
100
AcDbEntity
  8
MUOTOV-VMEK0
 62
     4
100
AcDb2dPolyline
 66
     1
 10
0.0
 20
0.0
 30
0.0
  0
VERTEX
  5
40E
330
40D
100
AcDbEntity
  8
MUOTOV-VMEK0
 62
     4
100
AcDbVertex
100
AcDb2dVertex
 10
140.70654296875
 20
529.35546875
 30
0.0
  0
VERTEX
  5
40F
330
40D
100
AcDbEntity
  8
MUOTOV-VMEK0
 62
     4
100
AcDbVertex
100
AcDb2dVertex
 10
48.92919921875
 20
529.35546875
 30
0.0
  0
SEQEND
  5
410
330
40D
100
AcDbEntity
  8
MUOTOV-VMEK0
  0
ENDBLK
  5
40C
330
409
100
AcDbEntity
  8
0
100
AcDbBlockEnd
  0
BLOCK
  5
413
330
411
100
AcDbEntity
  8
0
100
AcDbBlockBegin
  2
BLOCK_134
 70
     0
 71
     0
 10
0.0
 20
0.0
 30
0.0
  3
BLOCK_134
  1

  0
SPLINE
  5
415
330
411
100
AcDbEntity
  8
MUOTOV-VMEK0
 62
     4
100
AcDbSpline
210
0.0
220
0.0
230
1.0
 70
     8
 71
     3
 72
     8
 73
     4
 74
     0
 42
0.0000000001
 43
0.0000000001
 40
0.0
 40
0.0
 40
0.0
 40
0.0
 40
1.0
 40
1.0
 40
1.0
 40
1.0
 10
184.34375
 20
333.05859375
 30
0.0
 10
160.20263671875
 20
356.42578125
 30
0.0
 10
121.21044921875
 20
356.42578125
 30
0.0
 10
97.0693359375
 20
333.05859375
 30
0.0
  0
ENDBLK
  5
414
330
411
100
AcDbEntity
  8
0
100
AcDbBlockEnd
  0
BLOCK
  5
418
330
416
100
AcDbEntity
  8
0
100
AcDbBlockBegin
  2
BLOCK_135
 70
     0
 71
     0
 10
0.0
 20
0.0
 30
0.0
  3
BLOCK_135
  1

  0
SPLINE
  5
41A
330
416
100
AcDbEntity
  8
MUOTOV-VMEK0
 62
     4
100
AcDbSpline
210
0.0
220
0.0
230
1.0
 70
     8
 71
     3
 72
    11
 73
     7
 74
     0
 42
0.0000000001
 43
0.0000000001
 40
0.0
 40
0.0
 40
0.0
 40
0.0
 40
1.0
 40
1.0
 40
1.0
 40
2.0
 40
2.0
 40
2.0
 40
2.0
 10
79.7177734375
 20
271.34375
 30
0.0
 10
88.63720703125
 20
237.6611328125
 30
0.0
 10
123.1728515625
 20
217.5859375
 30
0.0
 10
156.85595703125
 20
226.5048828125
 30
0.0
 10
165.52001953125
 20
228.302734375
 30
0.0
 10
178.3388671875
 20
235.5029296875
 30
0.0
 10
184.38232421875
 20
241.9658203125
 30
0.0
  0
ENDBLK
  5
419
330
416
100
AcDbEntity
  8
0
100
AcDbBlockEnd
  0
BLOCK
  5
41D
330
41B
100
AcDbEntity
  8
0
100
AcDbBlockBegin
  2
BLOCK_136
 70
     0
 71
     0
 10
0.0
 20
0.0
 30
0.0
  3
BLOCK_136
  1

  0
SPLINE
  5
41F
330
41B
100
AcDbEntity
  8
MUOTOV-VMEK0
 62
     4
100
AcDbSpline
210
0.0
220
0.0
230
1.0
 70
     8
 71
     3
 72
     8
 73
     4
 74
     0
 42
0.0000000001
 43
0.0000000001
 40
0.0
 40
0.0
 40
0.0
 40
0.0
 40
1.0
 40
1.0
 40
1.0
 40
1.0
 10
281.716796875
 20
565.88671875
 30
0.0
 10
285.2255859375
 20
566.38330078125
 30
0.0
 10
287.87060546875
 20
569.62744140625
 30
0.0
 10
287.64990234375
 20
573.1650390625
 30
0.0
  0
ENDBLK
  5
41E
330
41B
100
AcDbEntity
  8
0
100
AcDbBlockEnd
  0
BLOCK
  5
422
330
420
100
AcDbEntity
  8
0
100
AcDbBlockBegin
  2
BLOCK_137
 70
     0
 71
     0
 10
0.0
 20
0.0
 30
0.0
  3
BLOCK_137
  1

  0
SPLINE
  5
424
330
420
100
AcDbEntity
  8
MUOTOV-VMEK0
 62
     4
100
AcDbSpline
210
0.0
220
0.0
230
1.0
 70
     8
 71
     3
 72
     8
 73
     4
 74
     0
 42
0.0000000001
 43
0.0000000001
 40
0.0
 40
0.0
 40
0.0
 40
0.0
 40
1.0
 40
1.0
 40
1.0
 40
1.0
 10
282.40625
 20
621.59765625
 30
0.0
 10
282.25390625
 20
622.662109375
 30
0.0
 10
281.27099609375
 20
623.52880859375
 30
0.0
 10
280.19580078125
 20
623.546875
 30
0.0
  0
ENDBLK
  5
423
330
420
100
AcDbEntity
  8
0
100
AcDbBlockEnd
  0
BLOCK
  5
427
330
425
100
AcDbEntity
  8
0
100
AcDbBlockBegin
  2
BLOCK_138
 70
     0
 71
     0
 10
0.0
 20
0.0
 30
0.0
  3
BLOCK_138
  1

  0
SPLINE
  5
429
330
425
100
AcDbEntity
  8
MUOTOV-VMEK0
 62
     4
100
AcDbSpline
210
0.0
220
0.0
230
1.0
 70
     8
 71
     3
 72
     8
 73
     4
 74
     0
 42
0.0000000001
 43
0.0000000001
 40
0.0
 40
0.0
 40
0.0
 40
0.0
 40
1.0
 40
1.0
 40
1.0
 40
1.0
 10
287.64990234375
 20
573.1650390625
 30
0.0
 10
287.25048828125
 20
585.59814453125
 30
0.0
 10
284.67724609375
 20
609.3671875
 30
0.0
 10
282.40625
 20
621.59765625
 30
0.0
  0
ENDBLK
  5
428
330
425
100
AcDbEntity
  8
0
100
AcDbBlockEnd
  0
BLOCK
  5
42C
330
42A
100
AcDbEntity
  8
0
100
AcDbBlockBegin
  2
BLOCK_139
 70
     0
 71
     0
 10
0.0
 20
0.0
 30
0.0
  3
BLOCK_139
  1

  0
POLYLINE
  5
42E
330
42A
100
AcDbEntity
  8
MUOTOV-VMEK0
 62
     4
100
AcDb2dPolyline
 66
     1
 10
0.0
 20
0.0
 30
0.0
  0
VERTEX
  5
42F
330
42E
100
AcDbEntity
  8
MUOTOV-VMEK0
 62
     4
100
AcDbVertex
100
AcDb2dVertex
 10
287.5908203125
 20
287.4931640625
 30
0.0
  0
VERTEX
  5
430
330
42E
100
AcDbEntity
  8
MUOTOV-VMEK0
 62
     4
100
AcDbVertex
100
AcDb2dVertex
 10
287.5908203125
 20
287.4931640625
 30
0.0
  0
SEQEND
  5
431
330
42E
100
AcDbEntity
  8
MUOTOV-VMEK0
  0
ENDBLK
  5
42D
330
42A
100
AcDbEntity
  8
0
100
AcDbBlockEnd
  0
BLOCK
  5
434
330
432
100
AcDbEntity
  8
0
100
AcDbBlockBegin
  2
BLOCK_140
 70
     0
 71
     0
 10
0.0
 20
0.0
 30
0.0
  3
BLOCK_140
  1

  0
SPLINE
  5
436
330
432
100
AcDbEntity
  8
MUOTOV-VMEK0
 62
     4
100
AcDbSpline
210
0.0
220
0.0
230
1.0
 70
     8
 71
     3
 72
    11
 73
     7
 74
     0
 42
0.0000000001
 43
0.0000000001
 40
0.0
 40
0.0
 40
0.0
 40
0.0
 40
1.0
 40
1.0
 40
1.0
 40
2.0
 40
2.0
 40
2.0
 40
2.0
 10
268.77978515625
 20
273.4736328125
 30
0.0
 10
276.52294921875
 20
273.4736328125
 30
0.0
 10
282.7998046875
 20
279.7509765625
 30
0.0
 10
282.7998046875
 20
287.4931640625
 30
0.0
 10
282.7998046875
 20
287.4931640625
 30
0.0
 10
282.7998046875
 20
287.4931640625
 30
0.0
 10
282.7998046875
 20
287.4931640625
 30
0.0
  0
ENDBLK
  5
435
330
432
100
AcDbEntity
  8
0
100
AcDbBlockEnd
  0
BLOCK
  5
439
330
437
100
AcDbEntity
  8
0
100
AcDbBlockBegin
  2
BLOCK_141
 70
     0
 71
     0
 10
0.0
 20
0.0
 30
0.0
  3
BLOCK_141
  1

  0
SPLINE
  5
43B
330
437
100
AcDbEntity
  8
MUOTOV-VMEK0
 62
     4
100
AcDbSpline
210
0.0
220
0.0
230
1.0
 70
     8
 71
     3
 72
    14
 73
    10
 74
     0
 42
0.0000000001
 43
0.0000000001
 40
0.0
 40
0.0
 40
0.0
 40
0.0
 40
1.0
 40
1.0
 40
1.0
 40
2.0
 40
2.0
 40
2.0
 40
3.0
 40
3.0
 40
3.0
 40
3.0
 10
271.4677734375
 20
271.3466796875
 30
0.0
 10
280.384765625
 20
271.3466796875
 30
0.0
 10
287.6142578125
 20
278.576171875
 30
0.0
 10
287.6142578125
 20
287.4931640625
 30
0.0
 10
287.6142578125
 20
296.4111328125
 30
0.0
 10
280.384765625
 20
303.6396484375
 30
0.0
 10
271.4677734375
 20
303.6396484375
 30
0.0
 10
271.4677734375
 20
303.6396484375
 30
0.0
 10
271.4677734375
 20
303.6396484375
 30
0.0
 10
271.4677734375
 20
303.6396484375
 30
0.0
  0
ENDBLK
  5
43A
330
437
100
AcDbEntity
  8
0
100
AcDbBlockEnd
  0
BLOCK
  5
43E
330
43C
100
AcDbEntity
  8
0
100
AcDbBlockBegin
  2
BLOCK_142
 70
     0
 71
     0
 10
0.0
 20
0.0
 30
0.0
  3
BLOCK_142
  1

  0
SPLINE
  5
440
330
43C
100
AcDbEntity
  8
MUOTOV-VMEK0
 62
     4
100
AcDbSpline
210
0.0
220
0.0
230
1.0
 70
     8
 71
     3
 72
    11
 73
     7
 74
     0
 42
0.0000000001
 43
0.0000000001
 40
0.0
 40
0.0
 40
0.0
 40
0.0
 40
1.0
 40
1.0
 40
1.0
 40
2.0
 40
2.0
 40
2.0
 40
2.0
 10
282.7998046875
 20
287.4931640625
 30
0.0
 10
282.7998046875
 20
295.236328125
 30
0.0
 10
276.52294921875
 20
301.513671875
 30
0.0
 10
268.77978515625
 20
301.513671875
 30
0.0
 10
268.77978515625
 20
301.513671875
 30
0.0
 10
268.77978515625
 20
301.513671875
 30
0.0
 10
268.77978515625
 20
301.513671875
 30
0.0
  0
ENDBLK
  5
43F
330
43C
100
AcDbEntity
  8
0
100
AcDbBlockEnd
  0
BLOCK
  5
443
330
441
100
AcDbEntity
  8
0
100
AcDbBlockBegin
  2
BLOCK_143
 70
     0
 71
     0
 10
0.0
 20
0.0
 30
0.0
  3
BLOCK_143
  1

  0
SPLINE
  5
445
330
441
100
AcDbEntity
  8
MUOTOV-VMEK0
 62
     4
100
AcDbSpline
210
0.0
220
0.0
230
1.0
 70
     8
 71
     3
 72
     8
 73
     4
 74
     0
 42
0.0000000001
 43
0.0000000001
 40
0.0
 40
0.0
 40
0.0
 40
0.0
 40
1.0
 40
1.0
 40
1.0
 40
1.0
 10
232.6025390625
 20
529.35546875
 30
0.0
 10
232.1064453125
 20
541.521484375
 30
0.0
 10
230.06298828125
 20
565.224609375
 30
0.0
 10
228.4697265625
 20
577.2958984375
 30
0.0
  0
ENDBLK
  5
444
330
441
100
AcDbEntity
  8
0
100
AcDbBlockEnd
  0
BLOCK
  5
448
330
446
100
AcDbEntity
  8
0
100
AcDbBlockBegin
  2
BLOCK_144
 70
     0
 71
     0
 10
0.0
 20
0.0
 30
0.0
  3
BLOCK_144
  1

  0
SPLINE
  5
44A
330
446
100
AcDbEntity
  8
MUOTOV-VMEK0
 62
     4
100
AcDbSpline
210
0.0
220
0.0
230
1.0
 70
     8
 71
     3
 72
     8
 73
     4
 74
     0
 42
0.0000000001
 43
0.0000000001
 40
0.0
 40
0.0
 40
0.0
 40
0.0
 40
1.0
 40
1.0
 40
1.0
 40
1.0
 10
228.4697265625
 20
577.2958984375
 30
0.0
 10
228.41552734375
 20
577.94384765625
 30
0.0
 10
227.86181640625
 20
578.564453125
 30
0.0
 10
227.22412109375
 20
578.69091796875
 30
0.0
  0
ENDBLK
  5
449
330
446
100
AcDbEntity
  8
0
100
AcDbBlockEnd
  0
BLOCK
  5
44D
330
44B
100
AcDbEntity
  8
0
100
AcDbBlockBegin
  2
BLOCK_145
 70
     0
 71
     0
 10
0.0
 20
0.0
 30
0.0
  3
BLOCK_145
  1

  0
SPLINE
  5
44F
330
44B
100
AcDbEntity
  8
MUOTOV-VMEK0
 62
     4
100
AcDbSpline
210
0.0
220
0.0
230
1.0
 70
     8
 71
     3
 72
     8
 73
     4
 74
     0
 42
0.0000000001
 43
0.0000000001
 40
0.0
 40
0.0
 40
0.0
 40
0.0
 40
1.0
 40
1.0
 40
1.0
 40
1.0
 10
227.22412109375
 20
578.69091796875
 30
0.0
 10
222.9404296875
 20
579.744140625
 30
0.0
 10
214.44677734375
 20
581.5556640625
 30
0.0
 10
210.10595703125
 20
582.341796875
 30
0.0
  0
ENDBLK
  5
44E
330
44B
100
AcDbEntity
  8
0
100
AcDbBlockEnd
  0
BLOCK
  5
452
330
450
100
AcDbEntity
  8
0
100
AcDbBlockBegin
  2
BLOCK_146
 70
     0
 71
     0
 10
0.0
 20
0.0
 30
0.0
  3
BLOCK_146
  1

  0
POLYLINE
  5
454
330
450
100
AcDbEntity
  8
MUOTOV-VMEK0
 62
     4
100
AcDb2dPolyline
 66
     1
 10
0.0
 20
0.0
 30
0.0
  0
VERTEX
  5
455
330
454
100
AcDbEntity
  8
MUOTOV-VMEK0
 62
     4
100
AcDbVertex
100
AcDb2dVertex
 10
210.10595703125
 20
582.341796875
 30
0.0
  0
VERTEX
  5
456
330
454
100
AcDbEntity
  8
MUOTOV-VMEK0
 62
     4
100
AcDbVertex
100
AcDb2dVertex
 10
208.47021484375
 20
582.341796875
 30
0.0
  0
SEQEND
  5
457
330
454
100
AcDbEntity
  8
MUOTOV-VMEK0
  0
ENDBLK
  5
453
330
450
100
AcDbEntity
  8
0
100
AcDbBlockEnd
  0
BLOCK
  5
45A
330
458
100
AcDbEntity
  8
0
100
AcDbBlockBegin
  2
BLOCK_147
 70
     0
 71
     0
 10
0.0
 20
0.0
 30
0.0
  3
BLOCK_147
  1

  0
SPLINE
  5
45C
330
458
100
AcDbEntity
  8
MUOTOV-VMEK0
 62
     4
100
AcDbSpline
210
0.0
220
0.0
230
1.0
 70
     8
 71
     3
 72
    11
 73
     7
 74
     0
 42
0.0000000001
 43
0.0000000001
 40
0.0
 40
0.0
 40
0.0
 40
0.0
 40
1.0
 40
1.0
 40
1.0
 40
2.0
 40
2.0
 40
2.0
 40
2.0
 10
217.265625
 20
558.248046875
 30
0.0
 10
216.73583984375
 20
564.0166015625
 30
0.0
 10
219.16455078125
 20
568.9794921875
 30
0.0
 10
222.69189453125
 20
569.33642578125
 30
0.0
 10
226.24267578125
 20
569.7021484375
 30
0.0
 10
229.5732421875
 20
565.29248046875
 30
0.0
 10
230.13134765625
 20
559.4873046875
 30
0.0
  0
ENDBLK
  5
45B
330
458
100
AcDbEntity
  8
0
100
AcDbBlockEnd
  0
BLOCK
  5
45F
330
45D
100
AcDbEntity
  8
0
100
AcDbBlockBegin
  2
BLOCK_148
 70
     0
 71
     0
 10
0.0
 20
0.0
 30
0.0
  3
BLOCK_148
  1

  0
SPLINE
  5
461
330
45D
100
AcDbEntity
  8
MUOTOV-VMEK0
 62
     4
100
AcDbSpline
210
0.0
220
0.0
230
1.0
 70
     8
 71
     3
 72
     8
 73
     4
 74
     0
 42
0.0000000001
 43
0.0000000001
 40
0.0
 40
0.0
 40
0.0
 40
0.0
 40
1.0
 40
1.0
 40
1.0
 40
1.0
 10
220.4765625
 20
568.41796875
 30
0.0
 10
221.7177734375
 20
566.9150390625
 30
0.0
 10
222.86865234375
 20
563.6669921875
 30
0.0
 10
223.01171875
 20
561.2626953125
 30
0.0
  0
ENDBLK
  5
460
330
45D
100
AcDbEntity
  8
0
100
AcDbBlockEnd
  0
BLOCK
  5
464
330
462
100
AcDbEntity
  8
0
100
AcDbBlockBegin
  2
BLOCK_149
 70
     0
 71
     0
 10
0.0
 20
0.0
 30
0.0
  3
BLOCK_149
  1

  0
SPLINE
  5
466
330
462
100
AcDbEntity
  8
MUOTOV-VMEK0
 62
     4
100
AcDbSpline
210
0.0
220
0.0
230
1.0
 70
     8
 71
     3
 72
     8
 73
     4
 74
     0
 42
0.0000000001
 43
0.0000000001
 40
0.0
 40
0.0
 40
0.0
 40
0.0
 40
1.0
 40
1.0
 40
1.0
 40
1.0
 10
219.302734375
 20
529.35546875
 30
0.0
 10
218.98876953125
 20
536.6416015625
 30
0.0
 10
217.9775390625
 20
550.98974609375
 30
0.0
 10
217.265625
 20
558.248046875
 30
0.0
  0
ENDBLK
  5
465
330
462
100
AcDbEntity
  8
0
100
AcDbBlockEnd
  0
BLOCK
  5
469
330
467
100
AcDbEntity
  8
0
100
AcDbBlockBegin
  2
BLOCK_150
 70
     0
 71
     0
 10
0.0
 20
0.0
 30
0.0
  3
BLOCK_150
  1

  0
SPLINE
  5
46B
330
467
100
AcDbEntity
  8
MUOTOV-VMEK0
 62
     4
100
AcDbSpline
210
0.0
220
0.0
230
1.0
 70
     8
 71
     3
 72
     8
 73
     4
 74
     0
 42
0.0000000001
 43
0.0000000001
 40
0.0
 40
0.0
 40
0.0
 40
0.0
 40
1.0
 40
1.0
 40
1.0
 40
1.0
 10
225.32763671875
 20
529.35546875
 30
0.0
 10
224.9873046875
 20
537.4091796875
 30
0.0
 10
223.837890625
 20
553.244140625
 30
0.0
 10
223.01171875
 20
561.2626953125
 30
0.0
  0
ENDBLK
  5
46A
330
467
100
AcDbEntity
  8
0
100
AcDbBlockEnd
  0
BLOCK
  5
46E
330
46C
100
AcDbEntity
  8
0
100
AcDbBlockBegin
  2
BLOCK_151
 70
     0
 71
     0
 10
0.0
 20
0.0
 30
0.0
  3
BLOCK_151
  1

  0
SPLINE
  5
470
330
46C
100
AcDbEntity
  8
MUOTOV-VMEK0
 62
     4
100
AcDbSpline
210
0.0
220
0.0
230
1.0
 70
     8
 71
     3
 72
     8
 73
     4
 74
     0
 42
0.0000000001
 43
0.0000000001
 40
0.0
 40
0.0
 40
0.0
 40
0.0
 40
1.0
 40
1.0
 40
1.0
 40
1.0
 10
232.01123046875
 20
559.58447265625
 30
0.0
 10
231.55419921875
 20
564.62841796875
 30
0.0
 10
230.458984375
 20
574.599609375
 30
0.0
 10
229.81005859375
 20
579.6220703125
 30
0.0
  0
ENDBLK
  5
46F
330
46C
100
AcDbEntity
  8
0
100
AcDbBlockEnd
  0
BLOCK
  5
473
330
471
100
AcDbEntity
  8
0
100
AcDbBlockBegin
  2
BLOCK_152
 70
     0
 71
     0
 10
0.0
 20
0.0
 30
0.0
  3
BLOCK_152
  1

  0
SPLINE
  5
475
330
471
100
AcDbEntity
  8
MUOTOV-VMEK0
 62
     4
100
AcDbSpline
210
0.0
220
0.0
230
1.0
 70
     8
 71
     3
 72
     8
 73
     4
 74
     0
 42
0.0000000001
 43
0.0000000001
 40
0.0
 40
0.0
 40
0.0
 40
0.0
 40
1.0
 40
1.0
 40
1.0
 40
1.0
 10
229.81005859375
 20
579.6220703125
 30
0.0
 10
224.46875
 20
580.98583984375
 30
0.0
 10
213.900390625
 20
583.25439453125
 30
0.0
 10
208.47021484375
 20
584.203125
 30
0.0
  0
ENDBLK
  5
474
330
471
100
AcDbEntity
  8
0
100
AcDbBlockEnd
  0
BLOCK
  5
478
330
476
100
AcDbEntity
  8
0
100
AcDbBlockBegin
  2
BLOCK_153
 70
     0
 71
     0
 10
0.0
 20
0.0
 30
0.0
  3
BLOCK_153
  1

  0
POLYLINE
  5
47A
330
476
100
AcDbEntity
  8
MUOTOV-VMEK0
 62
     4
100
AcDb2dPolyline
 66
     1
 10
0.0
 20
0.0
 30
0.0
  0
VERTEX
  5
47B
330
47A
100
AcDbEntity
  8
MUOTOV-VMEK0
 62
     4
100
AcDbVertex
100
AcDb2dVertex
 10
208.4375
 20
582.341796875
 30
0.0
  0
VERTEX
  5
47C
330
47A
100
AcDbEntity
  8
MUOTOV-VMEK0
 62
     4
100
AcDbVertex
100
AcDb2dVertex
 10
208.47021484375
 20
584.203125
 30
0.0
  0
SEQEND
  5
47D
330
47A
100
AcDbEntity
  8
MUOTOV-VMEK0
  0
ENDBLK
  5
479
330
476
100
AcDbEntity
  8
0
100
AcDbBlockEnd
  0
BLOCK
  5
480
330
47E
100
AcDbEntity
  8
0
100
AcDbBlockBegin
  2
BLOCK_154
 70
     0
 71
     0
 10
0.0
 20
0.0
 30
0.0
  3
BLOCK_154
  1

  0
SPLINE
  5
482
330
47E
100
AcDbEntity
  8
MUOTOV-VMEK0
 62
     4
100
AcDbSpline
210
0.0
220
0.0
230
1.0
 70
     8
 71
     3
 72
     8
 73
     4
 74
     0
 42
0.0000000001
 43
0.0000000001
 40
0.0
 40
0.0
 40
0.0
 40
0.0
 40
1.0
 40
1.0
 40
1.0
 40
1.0
 10
199.74658203125
 20
265.2529296875
 30
0.0
 10
200.3447265625
 20
266.767578125
 30
0.0
 10
201.302734375
 20
269.763671875
 30
0.0
 10
201.69482421875
 20
271.34375
 30
0.0
  0
ENDBLK
  5
481
330
47E
100
AcDbEntity
  8
0
100
AcDbBlockEnd
  0
BLOCK
  5
485
330
483
100
AcDbEntity
  8
0
100
AcDbBlockBegin
  2
BLOCK_155
 70
     0
 71
     0
 10
0.0
 20
0.0
 30
0.0
  3
BLOCK_155
  1

  0
SPLINE
  5
487
330
483
100
AcDbEntity
  8
MUOTOV-VMEK0
 62
     4
100
AcDbSpline
210
0.0
220
0.0
230
1.0
 70
     8
 71
     3
 72
     8
 73
     4
 74
     0
 42
0.0000000001
 43
0.0000000001
 40
0.0
 40
0.0
 40
0.0
 40
0.0
 40
1.0
 40
1.0
 40
1.0
 40
1.0
 10
201.69482421875
 20
303.6435546875
 30
0.0
 10
201.3056640625
 20
305.2119140625
 30
0.0
 10
200.35498046875
 20
308.1875
 30
0.0
 10
199.7626953125
 20
309.6923828125
 30
0.0
  0
ENDBLK
  5
486
330
483
100
AcDbEntity
  8
0
100
AcDbBlockEnd
  0
BLOCK
  5
48A
330
488
100
AcDbEntity
  8
0
100
AcDbBlockBegin
  2
BLOCK_156
 70
     0
 71
     0
 10
0.0
 20
0.0
 30
0.0
  3
BLOCK_156
  1

  0
SPLINE
  5
48C
330
488
100
AcDbEntity
  8
MUOTOV-VMEK0
 62
     4
100
AcDbSpline
210
0.0
220
0.0
230
1.0
 70
     8
 71
     3
 72
     8
 73
     4
 74
     0
 42
0.0000000001
 43
0.0000000001
 40
0.0
 40
0.0
 40
0.0
 40
0.0
 40
1.0
 40
1.0
 40
1.0
 40
1.0
 10
232.01123046875
 20
559.58447265625
 30
0.0
 10
244.6025390625
 20
560.72998046875
 30
0.0
 10
269.23779296875
 20
563.853515625
 30
0.0
 10
281.716796875
 20
565.88671875
 30
0.0
  0
ENDBLK
  5
48B
330
488
100
AcDbEntity
  8
0
100
AcDbBlockEnd
  0
BLOCK
  5
490
330
48E
100
AcDbEntity
  8
0
100
AcDbBlockBegin
  2
BLOCK_157
 70
     0
 71
     0
 10
0.0
 20
0.0
 30
0.0
  3
BLOCK_157
  1

  0
POLYLINE
  5
492
330
48E
100
AcDbEntity
  8
KESKIV-VMEK0
  6
AI-LINETYPE-1
 62
     2
100
AcDb2dPolyline
 66
     1
 10
0.0
 20
0.0
 30
0.0
  0
VERTEX
  5
493
330
492
100
AcDbEntity
  8
KESKIV-VMEK0
  6
AI-LINETYPE-1
 62
     2
100
AcDbVertex
100
AcDb2dVertex
 10
142.89697265625
 20
543.37548828125
 30
0.0
  0
VERTEX
  5
494
330
492
100
AcDbEntity
  8
KESKIV-VMEK0
  6
AI-LINETYPE-1
 62
     2
100
AcDbVertex
100
AcDb2dVertex
 10
138.515625
 20
543.37548828125
 30
0.0
  0
SEQEND
  5
495
330
492
100
AcDbEntity
  8
KESKIV-VMEK0
  6
AI-LINETYPE-1
  0
ENDBLK
  5
491
330
48E
100
AcDbEntity
  8
0
100
AcDbBlockEnd
  0
BLOCK
  5
499
330
497
100
AcDbEntity
  8
0
100
AcDbBlockBegin
  2
BLOCK_158
 70
     0
 71
     0
 10
0.0
 20
0.0
 30
0.0
  3
BLOCK_158
  1

  0
POLYLINE
  5
49B
330
497
100
AcDbEntity
  8
KESKIV-VMEK0
  6
AI-LINETYPE-2
 62
     2
100
AcDb2dPolyline
 66
     1
 10
0.0
 20
0.0
 30
0.0
  0
VERTEX
  5
49C
330
49B
100
AcDbEntity
  8
KESKIV-VMEK0
  6
AI-LINETYPE-2
 62
     2
100
AcDbVertex
100
AcDb2dVertex
 10
140.70654296875
 20
545.56591796875
 30
0.0
  0
VERTEX
  5
49D
330
49B
100
AcDbEntity
  8
KESKIV-VMEK0
  6
AI-LINETYPE-2
 62
     2
100
AcDbVertex
100
AcDb2dVertex
 10
140.70654296875
 20
541.1845703125
 30
0.0
  0
SEQEND
  5
49E
330
49B
100
AcDbEntity
  8
KESKIV-VMEK0
  6
AI-LINETYPE-2
  0
ENDBLK
  5
49A
330
497
100
AcDbEntity
  8
0
100
AcDbBlockEnd
  0
BLOCK
  5
4A2
330
4A0
100
AcDbEntity
  8
0
100
AcDbBlockBegin
  2
BLOCK_159
 70
     0
 71
     0
 10
0.0
 20
0.0
 30
0.0
  3
BLOCK_159
  1

  0
POLYLINE
  5
4A4
330
4A0
100
AcDbEntity
  8
KESKIV-VMEK0
  6
AI-LINETYPE-3
 62
     2
100
AcDb2dPolyline
 66
     1
 10
0.0
 20
0.0
 30
0.0
  0
VERTEX
  5
4A5
330
4A4
100
AcDbEntity
  8
KESKIV-VMEK0
  6
AI-LINETYPE-3
 62
     2
100
AcDbVertex
100
AcDb2dVertex
 10
510.1748046875
 20
254.4482421875
 30
0.0
  0
VERTEX
  5
4A6
330
4A4
100
AcDbEntity
  8
KESKIV-VMEK0
  6
AI-LINETYPE-3
 62
     2
100
AcDbVertex
100
AcDb2dVertex
 10
514.84765625
 20
254.4482421875
 30
0.0
  0
SEQEND
  5
4A7
330
4A4
100
AcDbEntity
  8
KESKIV-VMEK0
  6
AI-LINETYPE-3
  0
ENDBLK
  5
4A3
330
4A0
100
AcDbEntity
  8
0
100
AcDbBlockEnd
  0
BLOCK
  5
4AB
330
4A9
100
AcDbEntity
  8
0
100
AcDbBlockBegin
  2
BLOCK_160
 70
     0
 71
     0
 10
0.0
 20
0.0
 30
0.0
  3
BLOCK_160
  1

  0
POLYLINE
  5
4AD
330
4A9
100
AcDbEntity
  8
KESKIV-VMEK0
  6
AI-LINETYPE-4
 62
     2
100
AcDb2dPolyline
 66
     1
 10
0.0
 20
0.0
 30
0.0
  0
VERTEX
  5
4AE
330
4AD
100
AcDbEntity
  8
KESKIV-VMEK0
  6
AI-LINETYPE-4
 62
     2
100
AcDbVertex
100
AcDb2dVertex
 10
512.5107421875
 20
254.4482421875
 30
0.0
  0
VERTEX
  5
4AF
330
4AD
100
AcDbEntity
  8
KESKIV-VMEK0
  6
AI-LINETYPE-4
 62
     2
100
AcDbVertex
100
AcDb2dVertex
 10
512.5107421875
 20
256.7841796875
 30
0.0
  0
SEQEND
  5
4B0
330
4AD
100
AcDbEntity
  8
KESKIV-VMEK0
  6
AI-LINETYPE-4
  0
ENDBLK
  5
4AC
330
4A9
100
AcDbEntity
  8
0
100
AcDbBlockEnd
  0
BLOCK
  5
4B4
330
4B2
100
AcDbEntity
  8
0
100
AcDbBlockBegin
  2
BLOCK_161
 70
     0
 71
     0
 10
0.0
 20
0.0
 30
0.0
  3
BLOCK_161
  1

  0
POLYLINE
  5
4B6
330
4B2
100
AcDbEntity
  8
KESKIV-VMEK0
  6
AI-LINETYPE-5
 62
     2
100
AcDb2dPolyline
 66
     1
 10
0.0
 20
0.0
 30
0.0
  0
VERTEX
  5
4B7
330
4B6
100
AcDbEntity
  8
KESKIV-VMEK0
  6
AI-LINETYPE-5
 62
     2
100
AcDbVertex
100
AcDb2dVertex
 10
512.5107421875
 20
254.4482421875
 30
0.0
  0
VERTEX
  5
4B8
330
4B6
100
AcDbEntity
  8
KESKIV-VMEK0
  6
AI-LINETYPE-5
 62
     2
100
AcDbVertex
100
AcDb2dVertex
 10
512.5107421875
 20
252.111328125
 30
0.0
  0
SEQEND
  5
4B9
330
4B6
100
AcDbEntity
  8
KESKIV-VMEK0
  6
AI-LINETYPE-5
  0
ENDBLK
  5
4B5
330
4B2
100
AcDbEntity
  8
0
100
AcDbBlockEnd
  0
BLOCK
  5
4BD
330
4BB
100
AcDbEntity
  8
0
100
AcDbBlockBegin
  2
BLOCK_162
 70
     0
 71
     0
 10
0.0
 20
0.0
 30
0.0
  3
BLOCK_162
  1

  0
POLYLINE
  5
4BF
330
4BB
100
AcDbEntity
  8
KESKIV-VMEK0
  6
AI-LINETYPE-6
 62
     2
100
AcDb2dPolyline
 66
     1
 10
0.0
 20
0.0
 30
0.0
  0
VERTEX
  5
4C0
330
4BF
100
AcDbEntity
  8
KESKIV-VMEK0
  6
AI-LINETYPE-6
 62
     2
100
AcDbVertex
100
AcDb2dVertex
 10
444.0830078125
 20
254.4482421875
 30
0.0
  0
VERTEX
  5
4C1
330
4BF
100
AcDbEntity
  8
KESKIV-VMEK0
  6
AI-LINETYPE-6
 62
     2
100
AcDbVertex
100
AcDb2dVertex
 10
448.755859375
 20
254.4482421875
 30
0.0
  0
SEQEND
  5
4C2
330
4BF
100
AcDbEntity
  8
KESKIV-VMEK0
  6
AI-LINETYPE-6
  0
ENDBLK
  5
4BE
330
4BB
100
AcDbEntity
  8
0
100
AcDbBlockEnd
  0
BLOCK
  5
4C6
330
4C4
100
AcDbEntity
  8
0
100
AcDbBlockBegin
  2
BLOCK_163
 70
     0
 71
     0
 10
0.0
 20
0.0
 30
0.0
  3
BLOCK_163
  1

  0
POLYLINE
  5
4C8
330
4C4
100
AcDbEntity
  8
KESKIV-VMEK0
  6
AI-LINETYPE-7
 62
     2
100
AcDb2dPolyline
 66
     1
 10
0.0
 20
0.0
 30
0.0
  0
VERTEX
  5
4C9
330
4C8
100
AcDbEntity
  8
KESKIV-VMEK0
  6
AI-LINETYPE-7
 62
     2
100
AcDbVertex
100
AcDb2dVertex
 10
446.419921875
 20
254.4482421875
 30
0.0
  0
VERTEX
  5
4CA
330
4C8
100
AcDbEntity
  8
KESKIV-VMEK0
  6
AI-LINETYPE-7
 62
     2
100
AcDbVertex
100
AcDb2dVertex
 10
446.419921875
 20
256.7841796875
 30
0.0
  0
SEQEND
  5
4CB
330
4C8
100
AcDbEntity
  8
KESKIV-VMEK0
  6
AI-LINETYPE-7
  0
ENDBLK
  5
4C7
330
4C4
100
AcDbEntity
  8
0
100
AcDbBlockEnd
  0
BLOCK
  5
4CF
330
4CD
100
AcDbEntity
  8
0
100
AcDbBlockBegin
  2
BLOCK_164
 70
     0
 71
     0
 10
0.0
 20
0.0
 30
0.0
  3
BLOCK_164
  1

  0
POLYLINE
  5
4D1
330
4CD
100
AcDbEntity
  8
KESKIV-VMEK0
  6
AI-LINETYPE-8
 62
     2
100
AcDb2dPolyline
 66
     1
 10
0.0
 20
0.0
 30
0.0
  0
VERTEX
  5
4D2
330
4D1
100
AcDbEntity
  8
KESKIV-VMEK0
  6
AI-LINETYPE-8
 62
     2
100
AcDbVertex
100
AcDb2dVertex
 10
446.419921875
 20
254.4482421875
 30
0.0
  0
VERTEX
  5
4D3
330
4D1
100
AcDbEntity
  8
KESKIV-VMEK0
  6
AI-LINETYPE-8
 62
     2
100
AcDbVertex
100
AcDb2dVertex
 10
446.419921875
 20
252.111328125
 30
0.0
  0
SEQEND
  5
4D4
330
4D1
100
AcDbEntity
  8
KESKIV-VMEK0
  6
AI-LINETYPE-8
  0
ENDBLK
  5
4D0
330
4CD
100
AcDbEntity
  8
0
100
AcDbBlockEnd
  0
BLOCK
  5
4D8
330
4D6
100
AcDbEntity
  8
0
100
AcDbBlockBegin
  2
BLOCK_165
 70
     0
 71
     0
 10
0.0
 20
0.0
 30
0.0
  3
BLOCK_165
  1

  0
POLYLINE
  5
4DA
330
4D6
100
AcDbEntity
  8
KESKIV-VMEK0
  6
AI-LINETYPE-9
 62
     2
100
AcDb2dPolyline
 66
     1
 10
0.0
 20
0.0
 30
0.0
  0
VERTEX
  5
4DB
330
4DA
100
AcDbEntity
  8
KESKIV-VMEK0
  6
AI-LINETYPE-9
 62
     2
100
AcDbVertex
100
AcDb2dVertex
 10
444.0830078125
 20
320.5390625
 30
0.0
  0
VERTEX
  5
4DC
330
4DA
100
AcDbEntity
  8
KESKIV-VMEK0
  6
AI-LINETYPE-9
 62
     2
100
AcDbVertex
100
AcDb2dVertex
 10
448.755859375
 20
320.5390625
 30
0.0
  0
SEQEND
  5
4DD
330
4DA
100
AcDbEntity
  8
KESKIV-VMEK0
  6
AI-LINETYPE-9
  0
ENDBLK
  5
4D9
330
4D6
100
AcDbEntity
  8
0
100
AcDbBlockEnd
  0
BLOCK
  5
4E1
330
4DF
100
AcDbEntity
  8
0
100
AcDbBlockBegin
  2
BLOCK_166
 70
     0
 71
     0
 10
0.0
 20
0.0
 30
0.0
  3
BLOCK_166
  1

  0
POLYLINE
  5
4E3
330
4DF
100
AcDbEntity
  8
KESKIV-VMEK0
  6
AI-LINETYPE-10
 62
     2
100
AcDb2dPolyline
 66
     1
 10
0.0
 20
0.0
 30
0.0
  0
VERTEX
  5
4E4
330
4E3
100
AcDbEntity
  8
KESKIV-VMEK0
  6
AI-LINETYPE-10
 62
     2
100
AcDbVertex
100
AcDb2dVertex
 10
446.419921875
 20
320.5390625
 30
0.0
  0
VERTEX
  5
4E5
330
4E3
100
AcDbEntity
  8
KESKIV-VMEK0
  6
AI-LINETYPE-10
 62
     2
100
AcDbVertex
100
AcDb2dVertex
 10
446.419921875
 20
322.8759765625
 30
0.0
  0
SEQEND
  5
4E6
330
4E3
100
AcDbEntity
  8
KESKIV-VMEK0
  6
AI-LINETYPE-10
  0
ENDBLK
  5
4E2
330
4DF
100
AcDbEntity
  8
0
100
AcDbBlockEnd
  0
BLOCK
  5
4EA
330
4E8
100
AcDbEntity
  8
0
100
AcDbBlockBegin
  2
BLOCK_167
 70
     0
 71
     0
 10
0.0
 20
0.0
 30
0.0
  3
BLOCK_167
  1

  0
POLYLINE
  5
4EC
330
4E8
100
AcDbEntity
  8
KESKIV-VMEK0
  6
AI-LINETYPE-11
 62
     2
100
AcDb2dPolyline
 66
     1
 10
0.0
 20
0.0
 30
0.0
  0
VERTEX
  5
4ED
330
4EC
100
AcDbEntity
  8
KESKIV-VMEK0
  6
AI-LINETYPE-11
 62
     2
100
AcDbVertex
100
AcDb2dVertex
 10
446.419921875
 20
320.5390625
 30
0.0
  0
VERTEX
  5
4EE
330
4EC
100
AcDbEntity
  8
KESKIV-VMEK0
  6
AI-LINETYPE-11
 62
     2
100
AcDbVertex
100
AcDb2dVertex
 10
446.419921875
 20
318.203125
 30
0.0
  0
SEQEND
  5
4EF
330
4EC
100
AcDbEntity
  8
KESKIV-VMEK0
  6
AI-LINETYPE-11
  0
ENDBLK
  5
4EB
330
4E8
100
AcDbEntity
  8
0
100
AcDbBlockEnd
  0
BLOCK
  5
4F3
330
4F1
100
AcDbEntity
  8
0
100
AcDbBlockBegin
  2
BLOCK_168
 70
     0
 71
     0
 10
0.0
 20
0.0
 30
0.0
  3
BLOCK_168
  1

  0
POLYLINE
  5
4F5
330
4F1
100
AcDbEntity
  8
KESKIV-VMEK0
  6
AI-LINETYPE-12
 62
     2
100
AcDb2dPolyline
 66
     1
 10
0.0
 20
0.0
 30
0.0
  0
VERTEX
  5
4F6
330
4F5
100
AcDbEntity
  8
KESKIV-VMEK0
  6
AI-LINETYPE-12
 62
     2
100
AcDbVertex
100
AcDb2dVertex
 10
510.1748046875
 20
320.5390625
 30
0.0
  0
VERTEX
  5
4F7
330
4F5
100
AcDbEntity
  8
KESKIV-VMEK0
  6
AI-LINETYPE-12
 62
     2
100
AcDbVertex
100
AcDb2dVertex
 10
514.84765625
 20
320.5390625
 30
0.0
  0
SEQEND
  5
4F8
330
4F5
100
AcDbEntity
  8
KESKIV-VMEK0
  6
AI-LINETYPE-12
  0
ENDBLK
  5
4F4
330
4F1
100
AcDbEntity
  8
0
100
AcDbBlockEnd
  0
BLOCK
  5
4FC
330
4FA
100
AcDbEntity
  8
0
100
AcDbBlockBegin
  2
BLOCK_169
 70
     0
 71
     0
 10
0.0
 20
0.0
 30
0.0
  3
BLOCK_169
  1

  0
POLYLINE
  5
4FE
330
4FA
100
AcDbEntity
  8
KESKIV-VMEK0
  6
AI-LINETYPE-13
 62
     2
100
AcDb2dPolyline
 66
     1
 10
0.0
 20
0.0
 30
0.0
  0
VERTEX
  5
4FF
330
4FE
100
AcDbEntity
  8
KESKIV-VMEK0
  6
AI-LINETYPE-13
 62
     2
100
AcDbVertex
100
AcDb2dVertex
 10
512.5107421875
 20
320.5390625
 30
0.0
  0
VERTEX
  5
500
330
4FE
100
AcDbEntity
  8
KESKIV-VMEK0
  6
AI-LINETYPE-13
 62
     2
100
AcDbVertex
100
AcDb2dVertex
 10
512.5107421875
 20
322.8759765625
 30
0.0
  0
SEQEND
  5
501
330
4FE
100
AcDbEntity
  8
KESKIV-VMEK0
  6
AI-LINETYPE-13
  0
ENDBLK
  5
4FD
330
4FA
100
AcDbEntity
  8
0
100
AcDbBlockEnd
  0
BLOCK
  5
505
330
503
100
AcDbEntity
  8
0
100
AcDbBlockBegin
  2
BLOCK_170
 70
     0
 71
     0
 10
0.0
 20
0.0
 30
0.0
  3
BLOCK_170
  1

  0
POLYLINE
  5
507
330
503
100
AcDbEntity
  8
KESKIV-VMEK0
  6
AI-LINETYPE-14
 62
     2
100
AcDb2dPolyline
 66
     1
 10
0.0
 20
0.0
 30
0.0
  0
VERTEX
  5
508
330
507
100
AcDbEntity
  8
KESKIV-VMEK0
  6
AI-LINETYPE-14
 62
     2
100
AcDbVertex
100
AcDb2dVertex
 10
512.5107421875
 20
320.5390625
 30
0.0
  0
VERTEX
  5
509
330
507
100
AcDbEntity
  8
KESKIV-VMEK0
  6
AI-LINETYPE-14
 62
     2
100
AcDbVertex
100
AcDb2dVertex
 10
512.5107421875
 20
318.203125
 30
0.0
  0
SEQEND
  5
50A
330
507
100
AcDbEntity
  8
KESKIV-VMEK0
  6
AI-LINETYPE-14
  0
ENDBLK
  5
506
330
503
100
AcDbEntity
  8
0
100
AcDbBlockEnd
  0
BLOCK
  5
50E
330
50C
100
AcDbEntity
  8
0
100
AcDbBlockBegin
  2
BLOCK_171
 70
     0
 71
     0
 10
0.0
 20
0.0
 30
0.0
  3
BLOCK_171
  1

  0
POLYLINE
  5
510
330
50C
100
AcDbEntity
  8
KESKIV-VMEK0
  6
AI-LINETYPE-15
 62
     2
100
AcDb2dPolyline
 66
     1
 10
0.0
 20
0.0
 30
0.0
  0
VERTEX
  5
511
330
510
100
AcDbEntity
  8
KESKIV-VMEK0
  6
AI-LINETYPE-15
 62
     2
100
AcDbVertex
100
AcDb2dVertex
 10
474.7919921875
 20
287.4931640625
 30
0.0
  0
VERTEX
  5
512
330
510
100
AcDbEntity
  8
KESKIV-VMEK0
  6
AI-LINETYPE-15
 62
     2
100
AcDbVertex
100
AcDb2dVertex
 10
484.138671875
 20
287.4931640625
 30
0.0
  0
SEQEND
  5
513
330
510
100
AcDbEntity
  8
KESKIV-VMEK0
  6
AI-LINETYPE-15
  0
ENDBLK
  5
50F
330
50C
100
AcDbEntity
  8
0
100
AcDbBlockEnd
  0
BLOCK
  5
517
330
515
100
AcDbEntity
  8
0
100
AcDbBlockBegin
  2
BLOCK_172
 70
     0
 71
     0
 10
0.0
 20
0.0
 30
0.0
  3
BLOCK_172
  1

  0
POLYLINE
  5
519
330
515
100
AcDbEntity
  8
KESKIV-VMEK0
  6
AI-LINETYPE-16
 62
     2
100
AcDb2dPolyline
 66
     1
 10
0.0
 20
0.0
 30
0.0
  0
VERTEX
  5
51A
330
519
100
AcDbEntity
  8
KESKIV-VMEK0
  6
AI-LINETYPE-16
 62
     2
100
AcDbVertex
100
AcDb2dVertex
 10
479.46484375
 20
287.4931640625
 30
0.0
  0
VERTEX
  5
51B
330
519
100
AcDbEntity
  8
KESKIV-VMEK0
  6
AI-LINETYPE-16
 62
     2
100
AcDbVertex
100
AcDb2dVertex
 10
479.46484375
 20
292.1669921875
 30
0.0
  0
SEQEND
  5
51C
330
519
100
AcDbEntity
  8
KESKIV-VMEK0
  6
AI-LINETYPE-16
  0
ENDBLK
  5
518
330
515
100
AcDbEntity
  8
0
100
AcDbBlockEnd
  0
BLOCK
  5
520
330
51E
100
AcDbEntity
  8
0
100
AcDbBlockBegin
  2
BLOCK_173
 70
     0
 71
     0
 10
0.0
 20
0.0
 30
0.0
  3
BLOCK_173
  1

  0
POLYLINE
  5
522
330
51E
100
AcDbEntity
  8
KESKIV-VMEK0
  6
AI-LINETYPE-17
 62
     2
100
AcDb2dPolyline
 66
     1
 10
0.0
 20
0.0
 30
0.0
  0
VERTEX
  5
523
330
522
100
AcDbEntity
  8
KESKIV-VMEK0
  6
AI-LINETYPE-17
 62
     2
100
AcDbVertex
100
AcDb2dVertex
 10
479.46484375
 20
287.4931640625
 30
0.0
  0
VERTEX
  5
524
330
522
100
AcDbEntity
  8
KESKIV-VMEK0
  6
AI-LINETYPE-17
 62
     2
100
AcDbVertex
100
AcDb2dVertex
 10
479.46484375
 20
282.8203125
 30
0.0
  0
SEQEND
  5
525
330
522
100
AcDbEntity
  8
KESKIV-VMEK0
  6
AI-LINETYPE-17
  0
ENDBLK
  5
521
330
51E
100
AcDbEntity
  8
0
100
AcDbBlockEnd
  0
BLOCK
  5
529
330
527
100
AcDbEntity
  8
0
100
AcDbBlockBegin
  2
BLOCK_174
 70
     0
 71
     0
 10
0.0
 20
0.0
 30
0.0
  3
BLOCK_174
  1

  0
MTEXT
  5
52B
330
527
100
AcDbEntity
  8
KESKIV-VMEK0
 62
     3
100
AcDbMText
 10
469.0107421875
 20
397.775390625
 30
0.0
 40
14.02009994506836
 41
0.0
 71
     7
 72
     1
  1
\fMyriad Pro|b0|i0|c0|p34;\W1;Panel drilling:
  0
ENDBLK
  5
52A
330
527
100
AcDbEntity
  8
0
100
AcDbBlockEnd
  0
BLOCK
  5
52F
330
52D
100
AcDbEntity
  8
0
100
AcDbBlockBegin
  2
BLOCK_175
 70
     0
 71
     0
 10
0.0
 20
0.0
 30
0.0
  3
BLOCK_175
  1

  0
POLYLINE
  5
531
330
52D
100
AcDbEntity
  8
NAKMUO-VMEK0
  6
AI-LINETYPE-18
 62
     3
100
AcDb2dPolyline
 66
     1
 10
0.0
 20
0.0
 30
0.0
  0
VERTEX
  5
532
330
531
100
AcDbEntity
  8
NAKMUO-VMEK0
  6
AI-LINETYPE-18
 62
     3
100
AcDbVertex
100
AcDb2dVertex
 10
88.875
 20
333.6435546875
 30
0.0
  0
VERTEX
  5
533
330
531
100
AcDbEntity
  8
NAKMUO-VMEK0
  6
AI-LINETYPE-18
 62
     3
100
AcDbVertex
100
AcDb2dVertex
 10
61.23193359375
 20
333.6435546875
 30
0.0
  0
SEQEND
  5
534
330
531
100
AcDbEntity
  8
NAKMUO-VMEK0
  6
AI-LINETYPE-18
  0
ENDBLK
  5
530
330
52D
100
AcDbEntity
  8
0
100
AcDbBlockEnd
  0
BLOCK
  5
538
330
536
100
AcDbEntity
  8
0
100
AcDbBlockBegin
  2
BLOCK_176
 70
     0
 71
     0
 10
0.0
 20
0.0
 30
0.0
  3
BLOCK_176
  1

  0
POLYLINE
  5
53A
330
536
100
AcDbEntity
  8
NAKMUO-VMEK0
  6
AI-LINETYPE-19
 62
     3
100
AcDb2dPolyline
 66
     1
 10
0.0
 20
0.0
 30
0.0
  0
VERTEX
  5
53B
330
53A
100
AcDbEntity
  8
NAKMUO-VMEK0
  6
AI-LINETYPE-19
 62
     3
100
AcDbVertex
100
AcDb2dVertex
 10
74.7587890625
 20
309.1083984375
 30
0.0
  0
VERTEX
  5
53C
330
53A
100
AcDbEntity
  8
NAKMUO-VMEK0
  6
AI-LINETYPE-19
 62
     3
100
AcDbVertex
100
AcDb2dVertex
 10
51.38232421875
 20
309.1083984375
 30
0.0
  0
SEQEND
  5
53D
330
53A
100
AcDbEntity
  8
NAKMUO-VMEK0
  6
AI-LINETYPE-19
  0
ENDBLK
  5
539
330
536
100
AcDbEntity
  8
0
100
AcDbBlockEnd
  0
BLOCK
  5
541
330
53F
100
AcDbEntity
  8
0
100
AcDbBlockBegin
  2
BLOCK_177
 70
     0
 71
     0
 10
0.0
 20
0.0
 30
0.0
  3
BLOCK_177
  1

  0
POLYLINE
  5
543
330
53F
100
AcDbEntity
  8
NAKMUO-VMEK0
  6
AI-LINETYPE-20
 62
     3
100
AcDb2dPolyline
 66
     1
 10
0.0
 20
0.0
 30
0.0
  0
VERTEX
  5
544
330
543
100
AcDbEntity
  8
NAKMUO-VMEK0
  6
AI-LINETYPE-20
 62
     3
100
AcDbVertex
100
AcDb2dVertex
 10
192.5380859375
 20
241.34375
 30
0.0
  0
VERTEX
  5
545
330
543
100
AcDbEntity
  8
NAKMUO-VMEK0
  6
AI-LINETYPE-20
 62
     3
100
AcDbVertex
100
AcDb2dVertex
 10
221.1728515625
 20
241.34375
 30
0.0
  0
SEQEND
  5
546
330
543
100
AcDbEntity
  8
NAKMUO-VMEK0
  6
AI-LINETYPE-20
  0
ENDBLK
  5
542
330
53F
100
AcDbEntity
  8
0
100
AcDbBlockEnd
  0
BLOCK
  5
54A
330
548
100
AcDbEntity
  8
0
100
AcDbBlockBegin
  2
BLOCK_178
 70
     0
 71
     0
 10
0.0
 20
0.0
 30
0.0
  3
BLOCK_178
  1

  0
POLYLINE
  5
54C
330
548
100
AcDbEntity
  8
NAKMUO-VMEK0
  6
AI-LINETYPE-21
 62
     3
100
AcDb2dPolyline
 66
     1
 10
0.0
 20
0.0
 30
0.0
  0
VERTEX
  5
54D
330
54C
100
AcDbEntity
  8
NAKMUO-VMEK0
  6
AI-LINETYPE-21
 62
     3
100
AcDbVertex
100
AcDb2dVertex
 10
192.5751953125
 20
333.6015625
 30
0.0
  0
VERTEX
  5
54E
330
54C
100
AcDbEntity
  8
NAKMUO-VMEK0
  6
AI-LINETYPE-21
 62
     3
100
AcDbVertex
100
AcDb2dVertex
 10
221.2216796875
 20
333.6015625
 30
0.0
  0
SEQEND
  5
54F
330
54C
100
AcDbEntity
  8
NAKMUO-VMEK0
  6
AI-LINETYPE-21
  0
ENDBLK
  5
54B
330
548
100
AcDbEntity
  8
0
100
AcDbBlockEnd
  0
BLOCK
  5
553
330
551
100
AcDbEntity
  8
0
100
AcDbBlockBegin
  2
BLOCK_179
 70
     0
 71
     0
 10
0.0
 20
0.0
 30
0.0
  3
BLOCK_179
  1

  0
POLYLINE
  5
555
330
551
100
AcDbEntity
  8
NAKMUO-VMEK0
  6
AI-LINETYPE-22
 62
     3
100
AcDb2dPolyline
 66
     1
 10
0.0
 20
0.0
 30
0.0
  0
VERTEX
  5
556
330
555
100
AcDbEntity
  8
NAKMUO-VMEK0
  6
AI-LINETYPE-22
 62
     3
100
AcDbVertex
100
AcDb2dVertex
 10
206.654296875
 20
265.87890625
 30
0.0
  0
VERTEX
  5
557
330
555
100
AcDbEntity
  8
NAKMUO-VMEK0
  6
AI-LINETYPE-22
 62
     3
100
AcDbVertex
100
AcDb2dVertex
 10
229.587890625
 20
265.87890625
 30
0.0
  0
SEQEND
  5
558
330
555
100
AcDbEntity
  8
NAKMUO-VMEK0
  6
AI-LINETYPE-22
  0
ENDBLK
  5
554
330
551
100
AcDbEntity
  8
0
100
AcDbBlockEnd
  0
BLOCK
  5
55C
330
55A
100
AcDbEntity
  8
0
100
AcDbBlockBegin
  2
BLOCK_180
 70
     0
 71
     0
 10
0.0
 20
0.0
 30
0.0
  3
BLOCK_180
  1

  0
POLYLINE
  5
55E
330
55A
100
AcDbEntity
  8
NAKMUO-VMEK0
  6
AI-LINETYPE-23
 62
     3
100
AcDb2dPolyline
 66
     1
 10
0.0
 20
0.0
 30
0.0
  0
VERTEX
  5
55F
330
55E
100
AcDbEntity
  8
NAKMUO-VMEK0
  6
AI-LINETYPE-23
 62
     3
100
AcDbVertex
100
AcDb2dVertex
 10
206.66455078125
 20
309.076171875
 30
0.0
  0
VERTEX
  5
560
330
55E
100
AcDbEntity
  8
NAKMUO-VMEK0
  6
AI-LINETYPE-23
 62
     3
100
AcDbVertex
100
AcDb2dVertex
 10
229.583984375
 20
309.076171875
 30
0.0
  0
SEQEND
  5
561
330
55E
100
AcDbEntity
  8
NAKMUO-VMEK0
  6
AI-LINETYPE-23
  0
ENDBLK
  5
55D
330
55A
100
AcDbEntity
  8
0
100
AcDbBlockEnd
  0
ENDSEC
  0
SECTION
  2
ENTITIES
  0
INSERT
  5
3D
330
1F
100
AcDbEntity
  8
MITOIT-MMEK0
100
AcDbBlockReference
  2
BLOCK_2
 10
0.0
 20
0.0
 30
0.0
  0
INSERT
  5
8C
330
1F
100
AcDbEntity
  8
MITOIT-MMEK0
100
AcDbBlockReference
  2
BLOCK_12
 10
0.0
 20
0.0
 30
0.0
  0
INSERT
  5
EB
330
1F
100
AcDbEntity
  8
MITOIT-MMEK0
100
AcDbBlockReference
  2
BLOCK_24
 10
0.0
 20
0.0
 30
0.0
  0
INSERT
  5
13A
330
1F
100
AcDbEntity
  8
MITOIT-MMEK0
100
AcDbBlockReference
  2
BLOCK_34
 10
0.0
 20
0.0
 30
0.0
  0
INSERT
  5
189
330
1F
100
AcDbEntity
  8
MITOIT-MMEK0
100
AcDbBlockReference
  2
BLOCK_44
 10
0.0
 20
0.0
 30
0.0
  0
INSERT
  5
1D8
330
1F
100
AcDbEntity
  8
MITOIT-MMEK0
100
AcDbBlockReference
  2
BLOCK_54
 10
0.0
 20
0.0
 30
0.0
  0
INSERT
  5
227
330
1F
100
AcDbEntity
  8
MITOIT-MMEK0
100
AcDbBlockReference
  2
BLOCK_64
 10
0.0
 20
0.0
 30
0.0
  0
INSERT
  5
22C
330
1F
100
AcDbEntity
  8
MITOIT-MMEK0
100
AcDbBlockReference
  2
BLOCK_65
 10
0.0
 20
0.0
 30
0.0
  0
INSERT
  5
234
330
1F
100
AcDbEntity
  8
MITOIT-MMEK0
100
AcDbBlockReference
  2
BLOCK_66
 10
0.0
 20
0.0
 30
0.0
  0
INSERT
  5
23D
330
1F
100
AcDbEntity
  8
MITOIT-MMEK0
100
AcDbBlockReference
  2
BLOCK_67
 10
0.0
 20
0.0
 30
0.0
  0
INSERT
  5
24C
330
1F
100
AcDbEntity
  8
MITOIT-MMEK0
100
AcDbBlockReference
  2
BLOCK_69
 10
0.0
 20
0.0
 30
0.0
  0
INSERT
  5
29B
330
1F
100
AcDbEntity
  8
MITOIT-MMEK0
100
AcDbBlockReference
  2
BLOCK_79
 10
0.0
 20
0.0
 30
0.0
  0
INSERT
  5
2EB
330
1F
100
AcDbEntity
  8
MUOTOV-VMEKO
100
AcDbBlockReference
  2
BLOCK_89
 10
0.0
 20
0.0
 30
0.0
  0
INSERT
  5
2F3
330
1F
100
AcDbEntity
  8
MUOTOV-VMEKO
100
AcDbBlockReference
  2
BLOCK_90
 10
0.0
 20
0.0
 30
0.0
  0
INSERT
  5
2FB
330
1F
100
AcDbEntity
  8
MUOTOV-VMEKO
100
AcDbBlockReference
  2
BLOCK_91
 10
0.0
 20
0.0
 30
0.0
  0
INSERT
  5
303
330
1F
100
AcDbEntity
  8
MUOTOV-VMEKO
100
AcDbBlockReference
  2
BLOCK_92
 10
0.0
 20
0.0
 30
0.0
  0
INSERT
  5
30B
330
1F
100
AcDbEntity
  8
MUOTOV-VMEKO
100
AcDbBlockReference
  2
BLOCK_93
 10
0.0
 20
0.0
 30
0.0
  0
INSERT
  5
313
330
1F
100
AcDbEntity
  8
MUOTOV-VMEKO
100
AcDbBlockReference
  2
BLOCK_94
 10
0.0
 20
0.0
 30
0.0
  0
INSERT
  5
31B
330
1F
100
AcDbEntity
  8
MUOTOV-VMEKO
100
AcDbBlockReference
  2
BLOCK_95
 10
0.0
 20
0.0
 30
0.0
  0
INSERT
  5
320
330
1F
100
AcDbEntity
  8
MUOTOV-VMEKO
100
AcDbBlockReference
  2
BLOCK_96
 10
0.0
 20
0.0
 30
0.0
  0
INSERT
  5
328
330
1F
100
AcDbEntity
  8
MUOTOV-VMEKO
100
AcDbBlockReference
  2
BLOCK_97
 10
0.0
 20
0.0
 30
0.0
  0
INSERT
  5
32D
330
1F
100
AcDbEntity
  8
MUOTOV-VMEKO
100
AcDbBlockReference
  2
BLOCK_98
 10
0.0
 20
0.0
 30
0.0
  0
INSERT
  5
335
330
1F
100
AcDbEntity
  8
MUOTOV-VMEKO
100
AcDbBlockReference
  2
BLOCK_99
 10
0.0
 20
0.0
 30
0.0
  0
INSERT
  5
33D
330
1F
100
AcDbEntity
  8
MUOTOV-VMEKO
100
AcDbBlockReference
  2
BLOCK_100
 10
0.0
 20
0.0
 30
0.0
  0
INSERT
  5
345
330
1F
100
AcDbEntity
  8
MUOTOV-VMEKO
100
AcDbBlockReference
  2
BLOCK_101
 10
0.0
 20
0.0
 30
0.0
  0
INSERT
  5
34D
330
1F
100
AcDbEntity
  8
MUOTOV-VMEKO
100
AcDbBlockReference
  2
BLOCK_102
 10
0.0
 20
0.0
 30
0.0
  0
INSERT
  5
352
330
1F
100
AcDbEntity
  8
MUOTOV-VMEKO
100
AcDbBlockReference
  2
BLOCK_103
 10
0.0
 20
0.0
 30
0.0
  0
INSERT
  5
357
330
1F
100
AcDbEntity
  8
MUOTOV-VMEKO
100
AcDbBlockReference
  2
BLOCK_104
 10
0.0
 20
0.0
 30
0.0
  0
INSERT
  5
35C
330
1F
100
AcDbEntity
  8
MUOTOV-VMEKO
100
AcDbBlockReference
  2
BLOCK_105
 10
0.0
 20
0.0
 30
0.0
  0
INSERT
  5
361
330
1F
100
AcDbEntity
  8
MUOTOV-VMEKO
100
AcDbBlockReference
  2
BLOCK_106
 10
0.0
 20
0.0
 30
0.0
  0
INSERT
  5
367
330
1F
100
AcDbEntity
  8
MUOTOV-VMEK0
100
AcDbBlockReference
  2
BLOCK_107
 10
0.0
 20
0.0
 30
0.0
  0
INSERT
  5
36F
330
1F
100
AcDbEntity
  8
MUOTOV-VMEK0
100
AcDbBlockReference
  2
BLOCK_108
 10
0.0
 20
0.0
 30
0.0
  0
INSERT
  5
374
330
1F
100
AcDbEntity
  8
MUOTOV-VMEK0
100
AcDbBlockReference
  2
BLOCK_109
 10
0.0
 20
0.0
 30
0.0
  0
INSERT
  5
37C
330
1F
100
AcDbEntity
  8
MUOTOV-VMEK0
100
AcDbBlockReference
  2
BLOCK_110
 10
0.0
 20
0.0
 30
0.0
  0
INSERT
  5
384
330
1F
100
AcDbEntity
  8
MUOTOV-VMEK0
100
AcDbBlockReference
  2
BLOCK_111
 10
0.0
 20
0.0
 30
0.0
  0
INSERT
  5
389
330
1F
100
AcDbEntity
  8
MUOTOV-VMEK0
100
AcDbBlockReference
  2
BLOCK_112
 10
0.0
 20
0.0
 30
0.0
  0
INSERT
  5
38E
330
1F
100
AcDbEntity
  8
MUOTOV-VMEK0
100
AcDbBlockReference
  2
BLOCK_113
 10
0.0
 20
0.0
 30
0.0
  0
INSERT
  5
393
330
1F
100
AcDbEntity
  8
MUOTOV-VMEK0
100
AcDbBlockReference
  2
BLOCK_114
 10
0.0
 20
0.0
 30
0.0
  0
INSERT
  5
398
330
1F
100
AcDbEntity
  8
MUOTOV-VMEK0
100
AcDbBlockReference
  2
BLOCK_115
 10
0.0
 20
0.0
 30
0.0
  0
INSERT
  5
3A0
330
1F
100
AcDbEntity
  8
MUOTOV-VMEK0
100
AcDbBlockReference
  2
BLOCK_116
 10
0.0
 20
0.0
 30
0.0
  0
INSERT
  5
3A8
330
1F
100
AcDbEntity
  8
MUOTOV-VMEK0
100
AcDbBlockReference
  2
BLOCK_117
 10
0.0
 20
0.0
 30
0.0
  0
INSERT
  5
3B0
330
1F
100
AcDbEntity
  8
MUOTOV-VMEK0
100
AcDbBlockReference
  2
BLOCK_118
 10
0.0
 20
0.0
 30
0.0
  0
INSERT
  5
3B8
330
1F
100
AcDbEntity
  8
MUOTOV-VMEK0
100
AcDbBlockReference
  2
BLOCK_119
 10
0.0
 20
0.0
 30
0.0
  0
INSERT
  5
3BD
330
1F
100
AcDbEntity
  8
MUOTOV-VMEK0
100
AcDbBlockReference
  2
BLOCK_120
 10
0.0
 20
0.0
 30
0.0
  0
INSERT
  5
3C2
330
1F
100
AcDbEntity
  8
MUOTOV-VMEK0
100
AcDbBlockReference
  2
BLOCK_121
 10
0.0
 20
0.0
 30
0.0
  0
INSERT
  5
3C7
330
1F
100
AcDbEntity
  8
MUOTOV-VMEK0
100
AcDbBlockReference
  2
BLOCK_122
 10
0.0
 20
0.0
 30
0.0
  0
INSERT
  5
3CC
330
1F
100
AcDbEntity
  8
MUOTOV-VMEK0
100
AcDbBlockReference
  2
BLOCK_123
 10
0.0
 20
0.0
 30
0.0
  0
INSERT
  5
3D1
330
1F
100
AcDbEntity
  8
MUOTOV-VMEK0
100
AcDbBlockReference
  2
BLOCK_124
 10
0.0
 20
0.0
 30
0.0
  0
INSERT
  5
3D6
330
1F
100
AcDbEntity
  8
MUOTOV-VMEK0
100
AcDbBlockReference
  2
BLOCK_125
 10
0.0
 20
0.0
 30
0.0
  0
INSERT
  5
3DB
330
1F
100
AcDbEntity
  8
MUOTOV-VMEK0
100
AcDbBlockReference
  2
BLOCK_126
 10
0.0
 20
0.0
 30
0.0
  0
INSERT
  5
3E3
330
1F
100
AcDbEntity
  8
MUOTOV-VMEK0
100
AcDbBlockReference
  2
BLOCK_127
 10
0.0
 20
0.0
 30
0.0
  0
INSERT
  5
3EB
330
1F
100
AcDbEntity
  8
MUOTOV-VMEK0
100
AcDbBlockReference
  2
BLOCK_128
 10
0.0
 20
0.0
 30
0.0
  0
INSERT
  5
3F0
330
1F
100
AcDbEntity
  8
MUOTOV-VMEK0
100
AcDbBlockReference
  2
BLOCK_129
 10
0.0
 20
0.0
 30
0.0
  0
INSERT
  5
3F8
330
1F
100
AcDbEntity
  8
MUOTOV-VMEK0
100
AcDbBlockReference
  2
BLOCK_130
 10
0.0
 20
0.0
 30
0.0
  0
INSERT
  5
400
330
1F
100
AcDbEntity
  8
MUOTOV-VMEK0
100
AcDbBlockReference
  2
BLOCK_131
 10
0.0
 20
0.0
 30
0.0
  0
INSERT
  5
405
330
1F
100
AcDbEntity
  8
MUOTOV-VMEK0
100
AcDbBlockReference
  2
BLOCK_132
 10
0.0
 20
0.0
 30
0.0
  0
INSERT
  5
40A
330
1F
100
AcDbEntity
  8
MUOTOV-VMEK0
100
AcDbBlockReference
  2
BLOCK_133
 10
0.0
 20
0.0
 30
0.0
  0
INSERT
  5
412
330
1F
100
AcDbEntity
  8
MUOTOV-VMEK0
100
AcDbBlockReference
  2
BLOCK_134
 10
0.0
 20
0.0
 30
0.0
  0
INSERT
  5
417
330
1F
100
AcDbEntity
  8
MUOTOV-VMEK0
100
AcDbBlockReference
  2
BLOCK_135
 10
0.0
 20
0.0
 30
0.0
  0
INSERT
  5
41C
330
1F
100
AcDbEntity
  8
MUOTOV-VMEK0
100
AcDbBlockReference
  2
BLOCK_136
 10
0.0
 20
0.0
 30
0.0
  0
INSERT
  5
421
330
1F
100
AcDbEntity
  8
MUOTOV-VMEK0
100
AcDbBlockReference
  2
BLOCK_137
 10
0.0
 20
0.0
 30
0.0
  0
INSERT
  5
426
330
1F
100
AcDbEntity
  8
MUOTOV-VMEK0
100
AcDbBlockReference
  2
BLOCK_138
 10
0.0
 20
0.0
 30
0.0
  0
INSERT
  5
42B
330
1F
100
AcDbEntity
  8
MUOTOV-VMEK0
100
AcDbBlockReference
  2
BLOCK_139
 10
0.0
 20
0.0
 30
0.0
  0
INSERT
  5
433
330
1F
100
AcDbEntity
  8
MUOTOV-VMEK0
100
AcDbBlockReference
  2
BLOCK_140
 10
0.0
 20
0.0
 30
0.0
  0
INSERT
  5
438
330
1F
100
AcDbEntity
  8
MUOTOV-VMEK0
100
AcDbBlockReference
  2
BLOCK_141
 10
0.0
 20
0.0
 30
0.0
  0
INSERT
  5
43D
330
1F
100
AcDbEntity
  8
MUOTOV-VMEK0
100
AcDbBlockReference
  2
BLOCK_142
 10
0.0
 20
0.0
 30
0.0
  0
INSERT
  5
442
330
1F
100
AcDbEntity
  8
MUOTOV-VMEK0
100
AcDbBlockReference
  2
BLOCK_143
 10
0.0
 20
0.0
 30
0.0
  0
INSERT
  5
447
330
1F
100
AcDbEntity
  8
MUOTOV-VMEK0
100
AcDbBlockReference
  2
BLOCK_144
 10
0.0
 20
0.0
 30
0.0
  0
INSERT
  5
44C
330
1F
100
AcDbEntity
  8
MUOTOV-VMEK0
100
AcDbBlockReference
  2
BLOCK_145
 10
0.0
 20
0.0
 30
0.0
  0
INSERT
  5
451
330
1F
100
AcDbEntity
  8
MUOTOV-VMEK0
100
AcDbBlockReference
  2
BLOCK_146
 10
0.0
 20
0.0
 30
0.0
  0
INSERT
  5
459
330
1F
100
AcDbEntity
  8
MUOTOV-VMEK0
100
AcDbBlockReference
  2
BLOCK_147
 10
0.0
 20
0.0
 30
0.0
  0
INSERT
  5
45E
330
1F
100
AcDbEntity
  8
MUOTOV-VMEK0
100
AcDbBlockReference
  2
BLOCK_148
 10
0.0
 20
0.0
 30
0.0
  0
INSERT
  5
463
330
1F
100
AcDbEntity
  8
MUOTOV-VMEK0
100
AcDbBlockReference
  2
BLOCK_149
 10
0.0
 20
0.0
 30
0.0
  0
INSERT
  5
468
330
1F
100
AcDbEntity
  8
MUOTOV-VMEK0
100
AcDbBlockReference
  2
BLOCK_150
 10
0.0
 20
0.0
 30
0.0
  0
INSERT
  5
46D
330
1F
100
AcDbEntity
  8
MUOTOV-VMEK0
100
AcDbBlockReference
  2
BLOCK_151
 10
0.0
 20
0.0
 30
0.0
  0
INSERT
  5
472
330
1F
100
AcDbEntity
  8
MUOTOV-VMEK0
100
AcDbBlockReference
  2
BLOCK_152
 10
0.0
 20
0.0
 30
0.0
  0
INSERT
  5
477
330
1F
100
AcDbEntity
  8
MUOTOV-VMEK0
100
AcDbBlockReference
  2
BLOCK_153
 10
0.0
 20
0.0
 30
0.0
  0
INSERT
  5
47F
330
1F
100
AcDbEntity
  8
MUOTOV-VMEK0
100
AcDbBlockReference
  2
BLOCK_154
 10
0.0
 20
0.0
 30
0.0
  0
INSERT
  5
484
330
1F
100
AcDbEntity
  8
MUOTOV-VMEK0
100
AcDbBlockReference
  2
BLOCK_155
 10
0.0
 20
0.0
 30
0.0
  0
INSERT
  5
489
330
1F
100
AcDbEntity
  8
MUOTOV-VMEK0
100
AcDbBlockReference
  2
BLOCK_156
 10
0.0
 20
0.0
 30
0.0
  0
INSERT
  5
48F
330
1F
100
AcDbEntity
  8
KESKIV-VMEK0
100
AcDbBlockReference
  2
BLOCK_157
 10
0.0
 20
0.0
 30
0.0
  0
INSERT
  5
498
330
1F
100
AcDbEntity
  8
KESKIV-VMEK0
100
AcDbBlockReference
  2
BLOCK_158
 10
0.0
 20
0.0
 30
0.0
  0
INSERT
  5
4A1
330
1F
100
AcDbEntity
  8
KESKIV-VMEK0
100
AcDbBlockReference
  2
BLOCK_159
 10
0.0
 20
0.0
 30
0.0
  0
INSERT
  5
4AA
330
1F
100
AcDbEntity
  8
KESKIV-VMEK0
100
AcDbBlockReference
  2
BLOCK_160
 10
0.0
 20
0.0
 30
0.0
  0
INSERT
  5
4B3
330
1F
100
AcDbEntity
  8
KESKIV-VMEK0
100
AcDbBlockReference
  2
BLOCK_161
 10
0.0
 20
0.0
 30
0.0
  0
INSERT
  5
4BC
330
1F
100
AcDbEntity
  8
KESKIV-VMEK0
100
AcDbBlockReference
  2
BLOCK_162
 10
0.0
 20
0.0
 30
0.0
  0
INSERT
  5
4C5
330
1F
100
AcDbEntity
  8
KESKIV-VMEK0
100
AcDbBlockReference
  2
BLOCK_163
 10
0.0
 20
0.0
 30
0.0
  0
INSERT
  5
4CE
330
1F
100
AcDbEntity
  8
KESKIV-VMEK0
100
AcDbBlockReference
  2
BLOCK_164
 10
0.0
 20
0.0
 30
0.0
  0
INSERT
  5
4D7
330
1F
100
AcDbEntity
  8
KESKIV-VMEK0
100
AcDbBlockReference
  2
BLOCK_165
 10
0.0
 20
0.0
 30
0.0
  0
INSERT
  5
4E0
330
1F
100
AcDbEntity
  8
KESKIV-VMEK0
100
AcDbBlockReference
  2
BLOCK_166
 10
0.0
 20
0.0
 30
0.0
  0
INSERT
  5
4E9
330
1F
100
AcDbEntity
  8
KESKIV-VMEK0
100
AcDbBlockReference
  2
BLOCK_167
 10
0.0
 20
0.0
 30
0.0
  0
INSERT
  5
4F2
330
1F
100
AcDbEntity
  8
KESKIV-VMEK0
100
AcDbBlockReference
  2
BLOCK_168
 10
0.0
 20
0.0
 30
0.0
  0
INSERT
  5
4FB
330
1F
100
AcDbEntity
  8
KESKIV-VMEK0
100
AcDbBlockReference
  2
BLOCK_169
 10
0.0
 20
0.0
 30
0.0
  0
INSERT
  5
504
330
1F
100
AcDbEntity
  8
KESKIV-VMEK0
100
AcDbBlockReference
  2
BLOCK_170
 10
0.0
 20
0.0
 30
0.0
  0
INSERT
  5
50D
330
1F
100
AcDbEntity
  8
KESKIV-VMEK0
100
AcDbBlockReference
  2
BLOCK_171
 10
0.0
 20
0.0
 30
0.0
  0
INSERT
  5
516
330
1F
100
AcDbEntity
  8
KESKIV-VMEK0
100
AcDbBlockReference
  2
BLOCK_172
 10
0.0
 20
0.0
 30
0.0
  0
INSERT
  5
51F
330
1F
100
AcDbEntity
  8
KESKIV-VMEK0
100
AcDbBlockReference
  2
BLOCK_173
 10
0.0
 20
0.0
 30
0.0
  0
INSERT
  5
528
330
1F
100
AcDbEntity
  8
KESKIV-VMEK0
100
AcDbBlockReference
  2
BLOCK_174
 10
0.0
 20
0.0
 30
0.0
  0
INSERT
  5
52E
330
1F
100
AcDbEntity
  8
NAKMUO-VMEK0
100
AcDbBlockReference
  2
BLOCK_175
 10
0.0
 20
0.0
 30
0.0
  0
INSERT
  5
537
330
1F
100
AcDbEntity
  8
NAKMUO-VMEK0
100
AcDbBlockReference
  2
BLOCK_176
 10
0.0
 20
0.0
 30
0.0
  0
INSERT
  5
540
330
1F
100
AcDbEntity
  8
NAKMUO-VMEK0
100
AcDbBlockReference
  2
BLOCK_177
 10
0.0
 20
0.0
 30
0.0
  0
INSERT
  5
549
330
1F
100
AcDbEntity
  8
NAKMUO-VMEK0
100
AcDbBlockReference
  2
BLOCK_178
 10
0.0
 20
0.0
 30
0.0
  0
INSERT
  5
552
330
1F
100
AcDbEntity
  8
NAKMUO-VMEK0
100
AcDbBlockReference
  2
BLOCK_179
 10
0.0
 20
0.0
 30
0.0
  0
INSERT
  5
55B
330
1F
100
AcDbEntity
  8
NAKMUO-VMEK0
100
AcDbBlockReference
  2
BLOCK_180
 10
0.0
 20
0.0
 30
0.0
  0
ENDSEC
  0
SECTION
  2
OBJECTS
  0
DICTIONARY
  5
C
330
0
100
AcDbDictionary
  3
ACAD_GROUP
350
D
  3
ACAD_LAYOUT
350
1A
  3
ACAD_MLINESTYLE
350
17
  3
ACAD_PLOTSETTINGS
350
19
  3
ACAD_TABLESTYLE
350
583
  3
ACAD_VISUALSTYLE
350
2A
  3
ACDBHEADERROUNDTRIPXREC
350
563
  0
DICTIONARY
  5
D
102
{ACAD_REACTORS
330
C
102
}
330
C
100
AcDbDictionary
  0
DICTIONARY
  5
1A
102
{ACAD_REACTORS
330
C
102
}
330
C
100
AcDbDictionary
  0
DICTIONARY
  5
17
102
{ACAD_REACTORS
330
C
102
}
330
C
100
AcDbDictionary
  3
STANDARD
350
18
  0
DICTIONARY
  5
19
102
{ACAD_REACTORS
330
C
102
}
330
C
100
AcDbDictionary
  0
DICTIONARY
  5
583
102
{ACAD_REACTORS
330
C
102
}
330
C
100
AcDbDictionary
  0
DICTIONARY
  5
2A
102
{ACAD_REACTORS
330
C
102
}
330
C
100
AcDbDictionary
  3
2DWIREFRAME
350
2F
  3
3DWIREFRAME
350
30
  3
3D_HIDDEN
350
31
  3
BASIC
350
32
  3
BRIGHTEN
350
36
  3
COLORCHANGE
350
3A
  3
CONCEPTUAL
350
34
  3
DIM
350
35
  3
FACEPATTERN
350
39
  3
FLAT
350
2B
  3
FLATWITHEDGES
350
2C
  3
GOURAUD
350
2D
  3
GOURAUDWITHEDGES
350
2E
  3
LINEPATTERN
350
38
  3
REALISTIC
350
33
  3
THICKEN
350
37
  0
DICTIONARY
  5
563
102
{ACAD_REACTORS
330
C
102
}
330
C
100
AcDbDictionary
  3
CEPSNTYPE
350
56C
  3
DIMSTYLEDATA
350
582
  3
FINGERPRINTGUID
350
56D
  3
HYPERLINKBASE
350
566
  3
INSUNITS
350
56B
  3
LAYOUTDICT
350
568
  3
LWETCUNION
350
56A
  3
PLOTSETDICT
350
569
  3
PSVPSCALE
350
56F
  3
PUCSBASE
350
572
  3
PUCSORGBACK
350
578
  3
PUCSORGBOTTOM
350
574
  3
PUCSORGFRONT
350
577
  3
PUCSORGLEFT
350
575
  3
PUCSORGRIGHT
350
576
  3
PUCSORGTOP
350
573
  3
PUCSORTHOREF
350
570
  3
PUCSORTHOVIEW
350
571
  3
STYLESHEET
350
567
  3
TSTACKALIGN
350
564
  3
TSTACKSIZE
350
565
  3
UCSBASE
350
57B
  3
UCSORGBACK
350
581
  3
UCSORGBOTTOM
350
57D
  3
UCSORGFRONT
350
580
  3
UCSORGLEFT
350
57E
  3
UCSORGRIGHT
350
57F
  3
UCSORGTOP
350
57C
  3
UCSORTHOREF
350
579
  3
UCSORTHOVIEW
350
57A
  3
VERSIONGUID
350
56E
  0
MLINESTYLE
  5
18
102
{ACAD_REACTORS
330
17
102
}
330
17
100
AcDbMlineStyle
  2
Standard
 70
     0
  3

 62
   256
 51
90.0
 52
90.0
 71
     2
 49
0.5
 62
   256
  6
BYLAYER
 49
-0.5
 62
   256
  6
BYLAYER
  0
VISUALSTYLE
  5
2F
102
{ACAD_REACTORS
330
2A
102
}
330
2A
100
AcDbVisualStyle
  2
2dWireframe
 70
     4
 71
     0
 72
     2
 73
     0
 90
        0
 40
-0.6
 41
-30.0
 62
     5
 63
     7
 74
     1
 91
        4
 64
     7
 65
   257
 75
     1
175
     1
 42
1.0
 92
        0
 66
   257
 43
1.0
 76
     1
 77
     6
 78
     2
 67
     7
 79
     5
170
     0
171
     0
290
     0
174
     0
 93
        1
 44
0.0
173
     0
291
     0
 45
0.0
1001
ACAD
1000
AcDbSavedByObjectVersion
1070
     0
  0
VISUALSTYLE
  5
30
102
{ACAD_REACTORS
330
2A
102
}
330
2A
100
AcDbVisualStyle
  2
3dWireframe
 70
     5
 71
     0
 72
     2
 73
     0
 90
        0
 40
-0.6
 41
-30.0
 62
     5
 63
     7
 74
     1
 91
        4
 64
     7
 65
   257
 75
     1
175
     1
 42
1.0
 92
        0
 66
   257
 43
1.0
 76
     1
 77
     6
 78
     2
 67
     7
 79
     5
170
     0
171
     0
290
     0
174
     0
 93
        1
 44
0.0
173
     0
291
     0
 45
0.0
1001
ACAD
1000
AcDbSavedByObjectVersion
1070
     0
  0
VISUALSTYLE
  5
31
102
{ACAD_REACTORS
330
2A
102
}
330
2A
100
AcDbVisualStyle
  2
3D Hidden
 70
     6
 71
     1
 72
     2
 73
     2
 90
        0
 40
-0.6
 41
-30.0
 62
     5
 63
     7
 74
     2
 91
        2
 64
     7
 65
   257
 75
     2
175
     1
 42
40.0
 92
        0
 66
   257
 43
1.0
 76
     1
 77
     6
 78
     2
 67
     7
 79
     3
170
     0
171
     0
290
     0
174
     0
 93
        1
 44
0.0
173
     0
291
     0
 45
0.0
1001
ACAD
1000
AcDbSavedByObjectVersion
1070
     0
  0
VISUALSTYLE
  5
32
102
{ACAD_REACTORS
330
2A
102
}
330
2A
100
AcDbVisualStyle
  2
Basic
 70
     7
 71
     1
 72
     0
 73
     1
 90
        0
 40
-0.6
 41
-30.0
 62
     5
 63
     7
 74
     0
 91
        4
 64
     7
 65
   257
 75
     1
175
     1
 42
1.0
 92
        8
 66
     7
 43
1.0
 76
     1
 77
     6
 78
     2
 67
     7
 79
     5
170
     0
171
     0
290
     0
174
     0
 93
        1
 44
0.0
173
     0
291
     1
 45
0.0
1001
ACAD
1000
AcDbSavedByObjectVersion
1070
     0
  0
VISUALSTYLE
  5
36
102
{ACAD_REACTORS
330
2A
102
}
330
2A
100
AcDbVisualStyle
  2
Brighten
 70
    12
 71
     2
 72
     2
 73
     0
 90
        0
 40
-0.6
 41
-30.0
 62
     5
 63
     7
 74
     1
 91
        4
 64
     7
 65
   257
 75
     1
175
     1
 42
1.0
 92
        8
 66
     7
 43
1.0
 76
     1
 77
     6
 78
     2
 67
     7
 79
     5
170
     0
171
     0
290
     0
174
     0
 93
        1
 44
50.0
173
     0
291
     1
 45
0.0
1001
ACAD
1000
AcDbSavedByObjectVersion
1070
     0
  0
VISUALSTYLE
  5
3A
102
{ACAD_REACTORS
330
2A
102
}
330
2A
100
AcDbVisualStyle
  2
ColorChange
 70
    16
 71
     2
 72
     2
 73
     3
 90
        0
 40
-0.6
 41
-30.0
 62
     5
 63
     8
 74
     1
 91
        4
 64
     7
 65
   257
 75
     1
175
     1
 42
1.0
 92
        8
 66
     8
 43
1.0
 76
     1
 77
     6
 78
     2
 67
     7
 79
     5
170
     0
171
     0
290
     0
174
     0
 93
        1
 44
0.0
173
     0
291
     1
 45
0.0
1001
ACAD
1000
AcDbSavedByObjectVersion
1070
     0
  0
VISUALSTYLE
  5
34
102
{ACAD_REACTORS
330
2A
102
}
330
2A
100
AcDbVisualStyle
  2
Conceptual
 70
     9
 71
     3
 72
     2
 73
     0
 90
        0
 40
-0.6
 41
-30.0
 62
     5
 63
     7
 74
     2
 91
        2
 64
     7
 65
   257
 75
     1
175
     1
 42
40.0
 92
        8
 66
     7
 43
1.0
 76
     1
 77
     6
 78
     2
 67
     7
 79
     3
170
     0
171
     0
290
     0
174
     0
 93
        1
 44
0.0
173
     0
291
     0
 45
0.0
1001
ACAD
1000
AcDbSavedByObjectVersion
1070
     0
  0
VISUALSTYLE
  5
35
102
{ACAD_REACTORS
330
2A
102
}
330
2A
100
AcDbVisualStyle
  2
Dim
 70
    11
 71
     2
 72
     2
 73
     0
 90
        0
 40
-0.6
 41
-30.0
 62
     5
 63
     7
 74
     1
 91
        4
 64
     7
 65
   257
 75
     1
175
     1
 42
1.0
 92
        8
 66
     7
 43
1.0
 76
     1
 77
     6
 78
     2
 67
     7
 79
     5
170
     0
171
     0
290
     0
174
     0
 93
        1
 44
-50.0
173
     0
291
     1
 45
0.0
1001
ACAD
1000
AcDbSavedByObjectVersion
1070
     0
  0
VISUALSTYLE
  5
39
102
{ACAD_REACTORS
330
2A
102
}
330
2A
100
AcDbVisualStyle
  2
Facepattern
 70
    15
 71
     2
 72
     2
 73
     0
 90
        0
 40
-0.6
 41
-30.0
 62
     5
 63
     7
 74
     1
 91
        4
 64
     7
 65
   257
 75
     1
175
     1
 42
1.0
 92
        8
 66
     7
 43
1.0
 76
     1
 77
     6
 78
     2
 67
     7
 79
     5
170
     0
171
     0
290
     0
174
     0
 93
        1
 44
0.0
173
     0
291
     1
 45
0.0
1001
ACAD
1000
AcDbSavedByObjectVersion
1070
     0
  0
VISUALSTYLE
  5
2B
102
{ACAD_REACTORS
330
2A
102
}
330
2A
100
AcDbVisualStyle
  2
Flat
 70
     0
 71
     2
 72
     1
 73
     1
 90
        2
 40
-0.6
 41
30.0
 62
     5
 63
     7
 74
     0
 91
        4
 64
     7
 65
   257
 75
     1
175
     1
 42
1.0
 92
        8
 66
     7
 43
1.0
 76
     1
 77
     6
 78
     2
 67
     7
 79
     5
170
     0
171
     0
290
     0
174
     0
 93
       13
 44
0.0
173
     0
291
     1
 45
0.0
1001
ACAD
1000
AcDbSavedByObjectVersion
1070
     0
  0
VISUALSTYLE
  5
2C
102
{ACAD_REACTORS
330
2A
102
}
330
2A
100
AcDbVisualStyle
  2
FlatWithEdges
 70
     1
 71
     2
 72
     1
 73
     1
 90
        2
 40
-0.6
 41
30.0
 62
     5
 63
     7
 74
     1
 91
        4
 64
     7
 65
   257
 75
     1
175
     1
 42
1.0
 92
        0
 66
   257
 43
1.0
 76
     1
 77
     6
 78
     2
 67
     7
 79
     5
170
     0
171
     0
290
     0
174
     0
 93
       13
 44
0.0
173
     0
291
     1
 45
0.0
1001
ACAD
1000
AcDbSavedByObjectVersion
1070
     0
  0
VISUALSTYLE
  5
2D
102
{ACAD_REACTORS
330
2A
102
}
330
2A
100
AcDbVisualStyle
  2
Gouraud
 70
     2
 71
     2
 72
     2
 73
     1
 90
        2
 40
-0.6
 41
30.0
 62
     5
 63
     7
 74
     0
 91
        4
 64
     7
 65
   257
 75
     1
175
     1
 42
1.0
 92
        0
 66
     7
 43
1.0
 76
     1
 77
     6
 78
     2
 67
     7
 79
     5
170
     0
171
     0
290
     0
174
     0
 93
       13
 44
0.0
173
     0
291
     1
 45
0.0
1001
ACAD
1000
AcDbSavedByObjectVersion
1070
     0
  0
VISUALSTYLE
  5
2E
102
{ACAD_REACTORS
330
2A
102
}
330
2A
100
AcDbVisualStyle
  2
GouraudWithEdges
 70
     3
 71
     2
 72
     2
 73
     1
 90
        2
 40
-0.6
 41
30.0
 62
     5
 63
     7
 74
     1
 91
        4
 64
     7
 65
   257
 75
     1
175
     1
 42
1.0
 92
        0
 66
   257
 43
1.0
 76
     1
 77
     6
 78
     2
 67
     7
 79
     5
170
     0
171
     0
290
     0
174
     0
 93
       13
 44
0.0
173
     0
291
     1
 45
0.0
1001
ACAD
1000
AcDbSavedByObjectVersion
1070
     0
  0
VISUALSTYLE
  5
38
102
{ACAD_REACTORS
330
2A
102
}
330
2A
100
AcDbVisualStyle
  2
Linepattern
 70
    14
 71
     2
 72
     2
 73
     0
 90
        0
 40
-0.6
 41
-30.0
 62
     5
 63
     7
 74
     1
 91
        4
 64
     7
 65
   257
 75
     7
175
     7
 42
1.0
 92
        8
 66
     7
 43
1.0
 76
     1
 77
     6
 78
     2
 67
     7
 79
     5
170
     0
171
     0
290
     0
174
     0
 93
        1
 44
0.0
173
     0
291
     1
 45
0.0
1001
ACAD
1000
AcDbSavedByObjectVersion
1070
     0
  0
VISUALSTYLE
  5
33
102
{ACAD_REACTORS
330
2A
102
}
330
2A
100
AcDbVisualStyle
  2
Realistic
 70
     8
 71
     2
 72
     2
 73
     0
 90
        0
 40
-0.6
 41
-30.0
 62
     5
 63
     7
 74
     1
 91
        0
 64
     7
 65
   257
 75
     1
175
     1
 42
1.0
 92
        8
 66
     8
 43
1.0
 76
     1
 77
     6
 78
     2
 67
     7
 79
     5
170
     0
171
     0
290
     0
174
     0
 93
       13
 44
0.0
173
     0
291
     0
 45
0.0
1001
ACAD
1000
AcDbSavedByObjectVersion
1070
     0
  0
VISUALSTYLE
  5
37
102
{ACAD_REACTORS
330
2A
102
}
330
2A
100
AcDbVisualStyle
  2
Thicken
 70
    13
 71
     2
 72
     2
 73
     0
 90
        0
 40
-0.6
 41
-30.0
 62
     5
 63
     7
 74
     1
 91
        4
 64
     7
 65
   257
 75
     1
175
     1
 42
1.0
 92
       12
 66
     7
 43
1.0
 76
     1
 77
     6
 78
     2
 67
     7
 79
     5
170
     0
171
     0
290
     0
174
     0
 93
        1
 44
0.0
173
     0
291
     1
 45
0.0
1001
ACAD
1000
AcDbSavedByObjectVersion
1070
     0
  0
XRECORD
  5
56C
102
{ACAD_REACTORS
330
563
102
}
330
563
100
AcDbXrecord
 90
        0
  0
XRECORD
  5
582
102
{ACAD_REACTORS
330
563
102
}
330
563
100
AcDbXrecord
1000
DSTYLE
1002
{
1070
   340
340
11
1002
}
  0
XRECORD
  5
56D
102
{ACAD_REACTORS
330
563
102
}
330
563
100
AcDbXrecord
  1
{56F7D7D2-6E2A-6BFB-333A-D9FF50310F7E}
  0
XRECORD
  5
566
102
{ACAD_REACTORS
330
563
102
}
330
563
100
AcDbXrecord
  1

  0
XRECORD
  5
56B
102
{ACAD_REACTORS
330
563
102
}
330
563
100
AcDbXrecord
 90
        1
  0
XRECORD
  5
568
102
{ACAD_REACTORS
330
563
102
}
330
563
100
AcDbXrecord
340
1A
  0
XRECORD
  5
56A
102
{ACAD_REACTORS
330
563
102
}
330
563
100
AcDbXrecord
 90
    10269
  0
XRECORD
  5
569
102
{ACAD_REACTORS
330
563
102
}
330
563
100
AcDbXrecord
340
19
  0
XRECORD
  5
56F
102
{ACAD_REACTORS
330
563
102
}
330
563
100
AcDbXrecord
 40
0.0
  0
XRECORD
  5
572
102
{ACAD_REACTORS
330
563
102
}
330
563
100
AcDbXrecord
340
0
  0
XRECORD
  5
578
102
{ACAD_REACTORS
330
563
102
}
330
563
100
AcDbXrecord
 10
0.0
 20
0.0
 30
0.0
  0
XRECORD
  5
574
102
{ACAD_REACTORS
330
563
102
}
330
563
100
AcDbXrecord
 10
0.0
 20
0.0
 30
0.0
  0
XRECORD
  5
577
102
{ACAD_REACTORS
330
563
102
}
330
563
100
AcDbXrecord
 10
0.0
 20
0.0
 30
0.0
  0
XRECORD
  5
575
102
{ACAD_REACTORS
330
563
102
}
330
563
100
AcDbXrecord
 10
0.0
 20
0.0
 30
0.0
  0
XRECORD
  5
576
102
{ACAD_REACTORS
330
563
102
}
330
563
100
AcDbXrecord
 10
0.0
 20
0.0
 30
0.0
  0
XRECORD
  5
573
102
{ACAD_REACTORS
330
563
102
}
330
563
100
AcDbXrecord
 10
0.0
 20
0.0
 30
0.0
  0
XRECORD
  5
570
102
{ACAD_REACTORS
330
563
102
}
330
563
100
AcDbXrecord
340
0
  0
XRECORD
  5
571
102
{ACAD_REACTORS
330
563
102
}
330
563
100
AcDbXrecord
 70
     0
  0
XRECORD
  5
567
102
{ACAD_REACTORS
330
563
102
}
330
563
100
AcDbXrecord
  1

  0
XRECORD
  5
564
102
{ACAD_REACTORS
330
563
102
}
330
563
100
AcDbXrecord
 90
        1
  0
XRECORD
  5
565
102
{ACAD_REACTORS
330
563
102
}
330
563
100
AcDbXrecord
 90
       70
  0
XRECORD
  5
57B
102
{ACAD_REACTORS
330
563
102
}
330
563
100
AcDbXrecord
340
0
  0
XRECORD
  5
581
102
{ACAD_REACTORS
330
563
102
}
330
563
100
AcDbXrecord
 10
0.0
 20
0.0
 30
0.0
  0
XRECORD
  5
57D
102
{ACAD_REACTORS
330
563
102
}
330
563
100
AcDbXrecord
 10
0.0
 20
0.0
 30
0.0
  0
XRECORD
  5
580
102
{ACAD_REACTORS
330
563
102
}
330
563
100
AcDbXrecord
 10
0.0
 20
0.0
 30
0.0
  0
XRECORD
  5
57E
102
{ACAD_REACTORS
330
563
102
}
330
563
100
AcDbXrecord
 10
0.0
 20
0.0
 30
0.0
  0
XRECORD
  5
57F
102
{ACAD_REACTORS
330
563
102
}
330
563
100
AcDbXrecord
 10
0.0
 20
0.0
 30
0.0
  0
XRECORD
  5
57C
102
{ACAD_REACTORS
330
563
102
}
330
563
100
AcDbXrecord
 10
0.0
 20
0.0
 30
0.0
  0
XRECORD
  5
579
102
{ACAD_REACTORS
330
563
102
}
330
563
100
AcDbXrecord
340
0
  0
XRECORD
  5
57A
102
{ACAD_REACTORS
330
563
102
}
330
563
100
AcDbXrecord
 70
     0
  0
XRECORD
  5
56E
102
{ACAD_REACTORS
330
563
102
}
330
563
100
AcDbXrecord
  1
{FAEB1C32-E019-11D5-929B-00C0DF256EC4}
  0
ENDSEC
  0
EOF
