  0
SECTION
  2
HEADER
  9
$ACADVER
  1
AC1014
  9
$ACADMAINTVER
 70
     9
  9
$DWGCODEPAGE
  3
ASCII
  9
$INSBASE
 10
0.0
 20
0.0
 30
0.0
  9
$EXTMIN
 10
1.000000000000000E+20
 20
1.000000000000000E+20
 30
1.000000000000000E+20
  9
$EXTMAX
 10
-1.000000000000000E+20
 20
-1.000000000000000E+20
 30
-1.000000000000000E+20
  9
$LIMMIN
 10
0.0
 20
0.0
  9
$LIMMAX
 10
12.0
 20
9.0
  9
$ORTHOMODE
 70
     0
  9
$REGENMODE
 70
     1
  9
$FILLMODE
 70
     1
  9
$QTEXTMODE
 70
     0
  9
$MIRRTEXT
 70
     1
  9
$DRAGMODE
 70
     2
  9
$LTSCALE
 40
1.0
  9
$OSMODE
 70
    37
  9
$ATTMODE
 70
     1
  9
$TEXTSIZE
 40
0.2
  9
$TRACEWID
 40
0.05
  9
$TEXTSTYLE
  7
STANDARD
  9
$CLAYER
  8
0
  9
$CELTYPE
  6
BYLAYER
  9
$CECOLOR
 62
   256
  9
$CELTSCALE
 40
1.0
  9
$DELOBJ
 70
     1
  9
$DISPSILH
 70
     0
  9
$DIMSCALE
 40
1.0
  9
$DIMASZ
 40
0.18
  9
$DIMEXO
 40
0.0625
  9
$DIMDLI
 40
0.38
  9
$DIMRND
 40
0.0
  9
$DIMDLE
 40
0.0
  9
$DIMEXE
 40
0.18
  9
$DIMTP
 40
0.0
  9
$DIMTM
 40
0.0
  9
$DIMTXT
 40
0.18
  9
$DIMCEN
 40
0.09
  9
$DIMTSZ
 40
0.0
  9
$DIMTOL
 70
     0
  9
$DIMLIM
 70
     0
  9
$DIMTIH
 70
     1
  9
$DIMTOH
 70
     1
  9
$DIMSE1
 70
     0
  9
$DIMSE2
 70
     0
  9
$DIMTAD
 70
     0
  9
$DIMZIN
 70
     0
  9
$DIMBLK
  1

  9
$DIMASO
 70
     1
  9
$DIMSHO
 70
     1
  9
$DIMPOST
  1

  9
$DIMAPOST
  1

  9
$DIMALT
 70
     0
  9
$DIMALTD
 70
     2
  9
$DIMALTF
 40
25.4
  9
$DIMLFAC
 40
1.0
  9
$DIMTOFL
 70
     0
  9
$DIMTVP
 40
0.0
  9
$DIMTIX
 70
     0
  9
$DIMSOXD
 70
     0
  9
$DIMSAH
 70
     0
  9
$DIMBLK1
  1

  9
$DIMBLK2
  1

  9
$DIMSTYLE
  2
STANDARD
  9
$DIMCLRD
 70
     0
  9
$DIMCLRE
 70
     0
  9
$DIMCLRT
 70
     0
  9
$DIMTFAC
 40
1.0
  9
$DIMGAP
 40
0.09
  9
$DIMJUST
 70
     0
  9
$DIMSD1
 70
     0
  9
$DIMSD2
 70
     0
  9
$DIMTOLJ
 70
     1
  9
$DIMTZIN
 70
     0
  9
$DIMALTZ
 70
     0
  9
$DIMALTTZ
 70
     0
  9
$DIMFIT
 70
     3
  9
$DIMUPT
 70
     0
  9
$DIMUNIT
 70
     2
  9
$DIMDEC
 70
     4
  9
$DIMTDEC
 70
     4
  9
$DIMALTU
 70
     2
  9
$DIMALTTD
 70
     2
  9
$DIMTXSTY
  7
STANDARD
  9
$DIMAUNIT
 70
     0
  9
$LUNITS
 70
     2
  9
$LUPREC
 70
     4
  9
$SKETCHINC
 40
0.1
  9
$FILLETRAD
 40
0.5
  9
$AUNITS
 70
     0
  9
$AUPREC
 70
     0
  9
$MENU
  1
.
  9
$ELEVATION
 40
0.0
  9
$PELEVATION
 40
0.0
  9
$THICKNESS
 40
0.0
  9
$LIMCHECK
 70
     0
  9
$CHAMFERA
 40
0.5
  9
$CHAMFERB
 40
0.5
  9
$CHAMFERC
 40
1.0
  9
$CHAMFERD
 40
0.0
  9
$SKPOLY
 70
     0
  9
$TDCREATE
 40
2456085.57849537
  9
$TDUPDATE
 40
2456085.578495382
  9
$TDINDWG
 40
0.0000000116
  9
$TDUSRTIMER
 40
0.0000000116
  9
$USRTIMER
 70
     1
  9
$ANGBASE
 50
0.0
  9
$ANGDIR
 70
     0
  9
$PDMODE
 70
     0
  9
$PDSIZE
 40
0.0
  9
$PLINEWID
 40
0.0
  9
$COORDS
 70
     1
  9
$SPLFRAME
 70
     0
  9
$SPLINETYPE
 70
     6
  9
$SPLINESEGS
 70
     8
  9
$ATTDIA
 70
     0
  9
$ATTREQ
 70
     1
  9
$HANDLING
 70
     1
  9
$HANDSEED
  5
563
  9
$SURFTAB1
 70
     6
  9
$SURFTAB2
 70
     6
  9
$SURFTYPE
 70
     6
  9
$SURFU
 70
     6
  9
$SURFV
 70
     6
  9
$UCSNAME
  2

  9
$UCSORG
 10
0.0
 20
0.0
 30
0.0
  9
$UCSXDIR
 10
1.0
 20
0.0
 30
0.0
  9
$UCSYDIR
 10
0.0
 20
1.0
 30
0.0
  9
$PUCSNAME
  2

  9
$PUCSORG
 10
0.0
 20
0.0
 30
0.0
  9
$PUCSXDIR
 10
1.0
 20
0.0
 30
0.0
  9
$PUCSYDIR
 10
0.0
 20
1.0
 30
0.0
  9
$USERI1
 70
     0
  9
$USERI2
 70
     0
  9
$USERI3
 70
     0
  9
$USERI4
 70
     0
  9
$USERI5
 70
     0
  9
$USERR1
 40
0.0
  9
$USERR2
 40
0.0
  9
$USERR3
 40
0.0
  9
$USERR4
 40
0.0
  9
$USERR5
 40
0.0
  9
$WORLDVIEW
 70
     1
  9
$SHADEDGE
 70
     3
  9
$SHADEDIF
 70
    70
  9
$TILEMODE
 70
     1
  9
$MAXACTVP
 70
    64
  9
$PINSBASE
 10
0.0
 20
0.0
 30
0.0
  9
$PLIMCHECK
 70
     0
  9
$PEXTMIN
 10
1.000000000000000E+20
 20
1.000000000000000E+20
 30
1.000000000000000E+20
  9
$PEXTMAX
 10
-1.000000000000000E+20
 20
-1.000000000000000E+20
 30
-1.000000000000000E+20
  9
$PLIMMIN
 10
0.0
 20
0.0
  9
$PLIMMAX
 10
12.0
 20
9.0
  9
$UNITMODE
 70
     0
  9
$VISRETAIN
 70
     1
  9
$PLINEGEN
 70
     0
  9
$PSLTSCALE
 70
     1
  9
$TREEDEPTH
 70
  3020
  9
$PICKSTYLE
 70
     1
  9
$CMLSTYLE
  2
STANDARD
  9
$CMLJUST
 70
     0
  9
$CMLSCALE
 40
1.0
  9
$PROXYGRAPHICS
 70
     1
  9
$MEASUREMENT
 70
     0
  0
ENDSEC
  0
SECTION
  2
CLASSES
  0
CLASS
  1
ACDBDICTIONARYWDFLT
  2
AcDbDictionaryWithDefault
  3
ObjectDBX Classes
 90
        0
280
     0
281
     0
  0
CLASS
  1
VISUALSTYLE
  2
AcDbVisualStyle
  3
ObjectDBX Classes
 90
     4095
280
     0
281
     0
  0
CLASS
  1
XRECORD
  2
AcDbXrecord
  3
AutoCAD 2000
 90
        0
280
     0
281
     0
  0
CLASS
  1
LWPOLYLINE
  2
AcDbPolyline
  3
AutoCAD 2000
 90
        0
280
     0
281
     1
  0
CLASS
  1
HATCH
  2
AcDbHatch
  3
AutoCAD 2000
 90
        0
280
     0
281
     1
  0
CLASS
  1
ACDBPLACEHOLDER
  2
AcDbPlaceHolder
  3
ObjectDBX Classes
 90
        0
280
     0
281
     0
  0
CLASS
  1
LAYOUT
  2
AcDbLayout
  3
ObjectDBX Classes
 90
        0
280
     0
281
     0
  0
ENDSEC
  0
SECTION
  2
TABLES
  0
TABLE
  2
VPORT
  5
8
330
0
100
AcDbSymbolTable
 70
     1
  0
VPORT
  5
29
330
8
100
AcDbSymbolTableRecord
100
AcDbViewportTableRecord
  2
*ACTIVE
 70
     0
 10
0.0
 20
0.0
 11
1.0
 21
1.0
 12
0.0
 22
0.0
 13
0.0
 23
0.0
 14
0.5
 24
0.5
 15
0.5
 25
0.5
 16
0.0
 26
0.0
 36
1.0
 17
4.133859605391029
 27
5.846463138186734
 37
0.0
 40
11.69292627637347
 41
0.7070701563805866
 42
50.0
 43
0.0
 44
0.0
 50
0.0
 51
0.0
 71
     0
 72
   100
 73
     1
 74
     3
 75
     0
 76
     0
 77
     0
 78
     0
  0
ENDTAB
  0
TABLE
  2
LTYPE
  5
5
330
0
100
AcDbSymbolTable
 70
     1
  0
LTYPE
  5
14
330
5
100
AcDbSymbolTableRecord
100
AcDbLinetypeTableRecord
  2
BYBLOCK
 70
     0
  3

 72
    65
 73
     0
 40
0.0
  0
LTYPE
  5
15
330
5
100
AcDbSymbolTableRecord
100
AcDbLinetypeTableRecord
  2
BYLAYER
 70
     0
  3

 72
    65
 73
     0
 40
0.0
  0
LTYPE
  5
16
330
5
100
AcDbSymbolTableRecord
100
AcDbLinetypeTableRecord
  2
CONTINUOUS
 70
     0
  3
Solid line
 72
    65
 73
     0
 40
0.0
  0
ENDTAB
  0
TABLE
  2
LAYER
  5
2
330
0
100
AcDbSymbolTable
 70
     2
  0
LAYER
  5
10
330
2
100
AcDbSymbolTableRecord
100
AcDbLayerTableRecord
  2
0
 70
     0
 62
     7
  6
CONTINUOUS
  0
LAYER
  5
3B
330
2
100
AcDbSymbolTableRecord
100
AcDbLayerTableRecord
  2
LAYER_1
 70
     0
 62
     7
  6
CONTINUOUS
  0
ENDTAB
  0
TABLE
  2
STYLE
  5
3
330
0
100
AcDbSymbolTable
 70
     1
  0
STYLE
  5
11
330
3
100
AcDbSymbolTableRecord
100
AcDbTextStyleTableRecord
  2
STANDARD
 70
     0
 40
0.0
 41
1.0
 50
0.0
 71
     0
 42
0.2
  3
txt
  4

  0
ENDTAB
  0
TABLE
  2
VIEW
  5
6
330
0
100
AcDbSymbolTable
 70
     0
  0
ENDTAB
  0
TABLE
  2
UCS
  5
7
330
0
100
AcDbSymbolTable
 70
     0
  0
ENDTAB
  0
TABLE
  2
APPID
  5
9
330
0
100
AcDbSymbolTable
 70
     1
  0
APPID
  5
12
330
9
100
AcDbSymbolTableRecord
100
AcDbRegAppTableRecord
  2
ACAD
 70
     0
  0
ENDTAB
  0
TABLE
  2
DIMSTYLE
  5
A
330
0
100
AcDbSymbolTable
 70
     1
  0
DIMSTYLE
105
27
330
A
100
AcDbSymbolTableRecord
100
AcDbDimStyleTableRecord
  2
STANDARD
 70
     0
  3

  4

  5

  6

  7

 40
1.0
 41
0.18
 42
0.0625
 43
0.38
 44
0.18
 45
0.0
 46
0.0
 47
0.0
 48
0.0
140
0.18
141
0.09
142
0.0
143
25.4
144
1.0
145
0.0
146
1.0
147
0.09
 71
     0
 72
     0
 73
     1
 74
     1
 75
     0
 76
     0
 77
     0
 78
     0
170
     0
171
     2
172
     0
173
     0
174
     0
175
     0
176
     0
177
     0
178
     0
270
     2
271
     4
272
     4
273
     2
274
     2
340
11
275
     0
280
     0
281
     0
282
     0
283
     1
284
     0
285
     0
286
     0
287
     3
288
     0
  0
ENDTAB
  0
TABLE
  2
BLOCK_RECORD
  5
1
330
0
100
AcDbSymbolTable
 70
     9
  0
BLOCK_RECORD
  5
1F
330
1
100
AcDbSymbolTableRecord
100
AcDbBlockTableRecord
  2
*MODEL_SPACE
  0
BLOCK_RECORD
  5
1B
330
1
100
AcDbSymbolTableRecord
100
AcDbBlockTableRecord
  2
*PAPER_SPACE
  0
BLOCK_RECORD
  5
3C
330
1
100
AcDbSymbolTableRecord
100
AcDbBlockTableRecord
  2
BLOCK_2
  0
BLOCK_RECORD
  5
40
330
1
100
AcDbSymbolTableRecord
100
AcDbBlockTableRecord
  2
BLOCK_3
  0
BLOCK_RECORD
  5
466
330
1
100
AcDbSymbolTableRecord
100
AcDbBlockTableRecord
  2
BLOCK_4
  0
BLOCK_RECORD
  5
48C
330
1
100
AcDbSymbolTableRecord
100
AcDbBlockTableRecord
  2
BLOCK_5
  0
BLOCK_RECORD
  5
4A8
330
1
100
AcDbSymbolTableRecord
100
AcDbBlockTableRecord
  2
BLOCK_6
  0
BLOCK_RECORD
  5
4C4
330
1
100
AcDbSymbolTableRecord
100
AcDbBlockTableRecord
  2
BLOCK_7
  0
BLOCK_RECORD
  5
4E0
330
1
100
AcDbSymbolTableRecord
100
AcDbBlockTableRecord
  2
BLOCK_8
  0
BLOCK_RECORD
  5
520
330
1
100
AcDbSymbolTableRecord
100
AcDbBlockTableRecord
  2
BLOCK_9
  0
ENDTAB
  0
ENDSEC
  0
SECTION
  2
BLOCKS
  0
BLOCK
  5
20
330
1F
100
AcDbEntity
  8
0
100
AcDbBlockBegin
  2
*MODEL_SPACE
 70
     0
 71
     0
 10
0.0
 20
0.0
 30
0.0
  3
*MODEL_SPACE
  1

  0
ENDBLK
  5
21
330
1F
100
AcDbEntity
  8
0
100
AcDbBlockEnd
  0
BLOCK
  5
1C
330
1B
100
AcDbEntity
 67
     1
  8
0
100
AcDbBlockBegin
  2
*PAPER_SPACE
 70
     0
 71
     0
 10
0.0
 20
0.0
 30
0.0
  3
*PAPER_SPACE
  1

  0
ENDBLK
  5
1D
330
1B
100
AcDbEntity
 67
     1
  8
0
100
AcDbBlockEnd
  0
BLOCK
  5
3E
330
3C
100
AcDbEntity
  8
0
100
AcDbBlockBegin
  2
BLOCK_2
 70
     0
 71
     0
 10
0.0
 20
0.0
 30
0.0
  3
BLOCK_2
  1

  0
INSERT
  5
41
330
3C
100
AcDbEntity
  8
LAYER_1
100
AcDbBlockReference
  2
BLOCK_3
 10
0.0
 20
0.0
 30
0.0
  0
POLYLINE
  5
456
330
3C
100
AcDbEntity
  8
LAYER_1
 62
     7
100
AcDb2dPolyline
 66
     1
 10
0.0
 20
0.0
 30
0.0
  0
VERTEX
  5
457
330
456
100
AcDbEntity
  8
LAYER_1
 62
     7
100
AcDbVertex
100
AcDb2dVertex
 10
6.003015026363243
 20
6.990578069099261
 30
0.0
  0
VERTEX
  5
458
330
456
100
AcDbEntity
  8
LAYER_1
 62
     7
100
AcDbVertex
100
AcDb2dVertex
 10
6.008291180016184
 20
6.965607892042538
 30
0.0
  0
SEQEND
  5
459
330
456
100
AcDbEntity
  8
LAYER_1
  0
POLYLINE
  5
45A
330
3C
100
AcDbEntity
  8
LAYER_1
 62
     7
100
AcDb2dPolyline
 66
     1
 10
0.0
 20
0.0
 30
0.0
  0
VERTEX
  5
45B
330
45A
100
AcDbEntity
  8
LAYER_1
 62
     7
100
AcDbVertex
100
AcDb2dVertex
 10
4.595462014826896
 20
8.453917250235987
 30
0.0
  0
VERTEX
  5
45C
330
45A
100
AcDbEntity
  8
LAYER_1
 62
     7
100
AcDbVertex
100
AcDb2dVertex
 10
4.574682921263126
 20
8.457436946567448
 30
0.0
  0
SEQEND
  5
45D
330
45A
100
AcDbEntity
  8
LAYER_1
  0
POLYLINE
  5
45E
330
3C
100
AcDbEntity
  8
LAYER_1
 62
     7
100
AcDb2dPolyline
 66
     1
 10
0.0
 20
0.0
 30
0.0
  0
VERTEX
  5
45F
330
45E
100
AcDbEntity
  8
LAYER_1
 62
     7
100
AcDbVertex
100
AcDb2dVertex
 10
4.600371957300841
 20
8.527783401377166
 30
0.0
  0
VERTEX
  5
460
330
45E
100
AcDbEntity
  8
LAYER_1
 62
     7
100
AcDbVertex
100
AcDb2dVertex
 10
4.615861333834669
 20
8.449346392187039
 30
0.0
  0
SEQEND
  5
461
330
45E
100
AcDbEntity
  8
LAYER_1
  0
POLYLINE
  5
462
330
3C
100
AcDbEntity
  8
LAYER_1
 62
     7
100
AcDb2dPolyline
 66
     1
 10
0.0
 20
0.0
 30
0.0
  0
VERTEX
  5
463
330
462
100
AcDbEntity
  8
LAYER_1
 62
     7
100
AcDbVertex
100
AcDb2dVertex
 10
4.24617793032678
 20
8.449346392187039
 30
0.0
  0
VERTEX
  5
464
330
462
100
AcDbEntity
  8
LAYER_1
 62
     7
100
AcDbVertex
100
AcDb2dVertex
 10
4.283450090322366
 20
8.457436946567448
 30
0.0
  0
SEQEND
  5
465
330
462
100
AcDbEntity
  8
LAYER_1
  0
INSERT
  5
467
330
3C
100
AcDbEntity
  8
LAYER_1
100
AcDbBlockReference
  2
BLOCK_4
 10
0.0
 20
0.0
 30
0.0
  0
POLYLINE
  5
480
330
3C
100
AcDbEntity
  8
LAYER_1
100
AcDb2dPolyline
 66
     1
 10
0.0
 20
0.0
 30
0.0
  0
VERTEX
  5
481
330
480
100
AcDbEntity
  8
LAYER_1
100
AcDbVertex
100
AcDb2dVertex
 10
5.453942398655349
 20
7.784184820737435
 30
0.0
  0
VERTEX
  5
482
330
480
100
AcDbEntity
  8
LAYER_1
100
AcDbVertex
100
AcDb2dVertex
 10
5.453942398655349
 20
7.75675289075524
 30
0.0
  0
VERTEX
  5
483
330
480
100
AcDbEntity
  8
LAYER_1
100
AcDbVertex
100
AcDb2dVertex
 10
5.370920968039272
 20
7.770472246590588
 30
0.0
  0
SEQEND
  5
484
330
480
100
AcDbEntity
  8
LAYER_1
  0
HATCH
  5
485
330
3C
100
AcDbEntity
  8
LAYER_1
 62
     7
100
AcDbHatch
 10
0.0
 20
0.0
 30
0.0
210
0.0
220
0.0
230
1.0
  2
SOLID
 70
     1
 71
     0
 91
        1
 92
        1
 93
        3
 72
     1
 10
5.453942398655349
 20
7.784184820737435
 11
5.453942398655349
 21
7.75675289075524
 72
     1
 10
5.453942398655349
 20
7.75675289075524
 11
5.370920968039272
 21
7.770472246590588
 72
     1
 10
5.370920968039272
 20
7.770472246590588
 11
5.453942398655349
 21
7.784184820737435
 97
        0
 75
     0
 76
     1
 98
        0
  0
POLYLINE
  5
486
330
3C
100
AcDbEntity
  8
LAYER_1
100
AcDb2dPolyline
 66
     1
 10
0.0
 20
0.0
 30
0.0
  0
VERTEX
  5
487
330
486
100
AcDbEntity
  8
LAYER_1
100
AcDbVertex
100
AcDb2dVertex
 10
6.001604435155259
 20
7.784184820737435
 30
0.0
  0
VERTEX
  5
488
330
486
100
AcDbEntity
  8
LAYER_1
100
AcDbVertex
100
AcDb2dVertex
 10
6.001604435155259
 20
7.75675289075524
 30
0.0
  0
VERTEX
  5
489
330
486
100
AcDbEntity
  8
LAYER_1
100
AcDbVertex
100
AcDb2dVertex
 10
6.084612302394335
 20
7.770472246590588
 30
0.0
  0
SEQEND
  5
48A
330
486
100
AcDbEntity
  8
LAYER_1
  0
HATCH
  5
48B
330
3C
100
AcDbEntity
  8
LAYER_1
 62
     7
100
AcDbHatch
 10
0.0
 20
0.0
 30
0.0
210
0.0
220
0.0
230
1.0
  2
SOLID
 70
     1
 71
     0
 91
        1
 92
        1
 93
        3
 72
     1
 10
6.001604435155259
 20
7.784184820737435
 11
6.001604435155259
 21
7.75675289075524
 72
     1
 10
6.001604435155259
 20
7.75675289075524
 11
6.084612302394335
 21
7.770472246590588
 72
     1
 10
6.084612302394335
 20
7.770472246590588
 11
6.001604435155259
 21
7.784184820737435
 97
        0
 75
     0
 76
     1
 98
        0
  0
INSERT
  5
48D
330
3C
100
AcDbEntity
  8
LAYER_1
100
AcDbBlockReference
  2
BLOCK_5
 10
0.0
 20
0.0
 30
0.0
  0
POLYLINE
  5
49C
330
3C
100
AcDbEntity
  8
LAYER_1
100
AcDb2dPolyline
 66
     1
 10
0.0
 20
0.0
 30
0.0
  0
VERTEX
  5
49D
330
49C
100
AcDbEntity
  8
LAYER_1
100
AcDbVertex
100
AcDb2dVertex
 10
4.11040852655829
 20
8.649541836704811
 30
0.0
  0
VERTEX
  5
49E
330
49C
100
AcDbEntity
  8
LAYER_1
100
AcDbVertex
100
AcDb2dVertex
 10
4.11040852655829
 20
8.621750477232121
 30
0.0
  0
VERTEX
  5
49F
330
49C
100
AcDbEntity
  8
LAYER_1
100
AcDbVertex
100
AcDb2dVertex
 10
4.027048011517217
 20
8.635822480869464
 30
0.0
  0
SEQEND
  5
4A0
330
49C
100
AcDbEntity
  8
LAYER_1
  0
HATCH
  5
4A1
330
3C
100
AcDbEntity
  8
LAYER_1
 62
     7
100
AcDbHatch
 10
0.0
 20
0.0
 30
0.0
210
0.0
220
0.0
230
1.0
  2
SOLID
 70
     1
 71
     0
 91
        1
 92
        1
 93
        3
 72
     1
 10
4.11040852655829
 20
8.649541836704811
 11
4.11040852655829
 21
8.621750477232121
 72
     1
 10
4.11040852655829
 20
8.621750477232121
 11
4.027048011517217
 21
8.635822480869464
 72
     1
 10
4.027048011517217
 20
8.635822480869464
 11
4.11040852655829
 21
8.649541836704811
 97
        0
 75
     0
 76
     1
 98
        0
  0
POLYLINE
  5
4A2
330
3C
100
AcDbEntity
  8
LAYER_1
100
AcDb2dPolyline
 66
     1
 10
0.0
 20
0.0
 30
0.0
  0
VERTEX
  5
4A3
330
4A2
100
AcDbEntity
  8
LAYER_1
100
AcDbVertex
100
AcDb2dVertex
 10
4.751630737603159
 20
8.649541836704811
 30
0.0
  0
VERTEX
  5
4A4
330
4A2
100
AcDbEntity
  8
LAYER_1
100
AcDbVertex
100
AcDb2dVertex
 10
4.751630737603159
 20
8.621750477232121
 30
0.0
  0
VERTEX
  5
4A5
330
4A2
100
AcDbEntity
  8
LAYER_1
100
AcDbVertex
100
AcDb2dVertex
 10
4.834638604842236
 20
8.635822480869464
 30
0.0
  0
SEQEND
  5
4A6
330
4A2
100
AcDbEntity
  8
LAYER_1
  0
HATCH
  5
4A7
330
3C
100
AcDbEntity
  8
LAYER_1
 62
     7
100
AcDbHatch
 10
0.0
 20
0.0
 30
0.0
210
0.0
220
0.0
230
1.0
  2
SOLID
 70
     1
 71
     0
 91
        1
 92
        1
 93
        3
 72
     1
 10
4.751630737603159
 20
8.649541836704811
 11
4.751630737603159
 21
8.621750477232121
 72
     1
 10
4.751630737603159
 20
8.621750477232121
 11
4.834638604842236
 21
8.635822480869464
 72
     1
 10
4.834638604842236
 20
8.635822480869464
 11
4.751630737603159
 21
8.649541836704811
 97
        0
 75
     0
 76
     1
 98
        0
  0
INSERT
  5
4A9
330
3C
100
AcDbEntity
  8
LAYER_1
100
AcDbBlockReference
  2
BLOCK_6
 10
0.0
 20
0.0
 30
0.0
  0
POLYLINE
  5
4B8
330
3C
100
AcDbEntity
  8
LAYER_1
100
AcDb2dPolyline
 66
     1
 10
0.0
 20
0.0
 30
0.0
  0
VERTEX
  5
4B9
330
4B8
100
AcDbEntity
  8
LAYER_1
100
AcDbVertex
100
AcDb2dVertex
 10
5.159047455924628
 20
7.331059521926474
 30
0.0
  0
VERTEX
  5
4BA
330
4B8
100
AcDbEntity
  8
LAYER_1
100
AcDbVertex
100
AcDb2dVertex
 10
5.186838815397319
 20
7.331059521926474
 30
0.0
  0
VERTEX
  5
4BB
330
4B8
100
AcDbEntity
  8
LAYER_1
100
AcDbVertex
100
AcDb2dVertex
 10
5.173112677873472
 20
7.414420036967547
 30
0.0
  0
SEQEND
  5
4BC
330
4B8
100
AcDbEntity
  8
LAYER_1
  0
HATCH
  5
4BD
330
3C
100
AcDbEntity
  8
LAYER_1
 62
     7
100
AcDbHatch
 10
0.0
 20
0.0
 30
0.0
210
0.0
220
0.0
230
1.0
  2
SOLID
 70
     1
 71
     0
 91
        1
 92
        1
 93
        3
 72
     1
 10
5.159047455924628
 20
7.331059521926474
 11
5.186838815397319
 21
7.331059521926474
 72
     1
 10
5.186838815397319
 20
7.331059521926474
 11
5.173112677873472
 21
7.414420036967547
 72
     1
 10
5.173112677873472
 20
7.414420036967547
 11
5.159047455924628
 21
7.331059521926474
 97
        0
 75
     0
 76
     1
 98
        0
  0
POLYLINE
  5
4BE
330
3C
100
AcDbEntity
  8
LAYER_1
100
AcDb2dPolyline
 66
     1
 10
0.0
 20
0.0
 30
0.0
  0
VERTEX
  5
4BF
330
4BE
100
AcDbEntity
  8
LAYER_1
100
AcDbVertex
100
AcDb2dVertex
 10
5.159047455924628
 20
6.191430677956648
 30
0.0
  0
VERTEX
  5
4C0
330
4BE
100
AcDbEntity
  8
LAYER_1
100
AcDbVertex
100
AcDb2dVertex
 10
5.186838815397319
 20
6.191430677956648
 30
0.0
  0
VERTEX
  5
4C1
330
4BE
100
AcDbEntity
  8
LAYER_1
100
AcDbVertex
100
AcDb2dVertex
 10
5.173112677873472
 20
6.108416029029071
 30
0.0
  0
SEQEND
  5
4C2
330
4BE
100
AcDbEntity
  8
LAYER_1
  0
HATCH
  5
4C3
330
3C
100
AcDbEntity
  8
LAYER_1
 62
     7
100
AcDbHatch
 10
0.0
 20
0.0
 30
0.0
210
0.0
220
0.0
230
1.0
  2
SOLID
 70
     1
 71
     0
 91
        1
 92
        1
 93
        3
 72
     1
 10
5.159047455924628
 20
6.191430677956648
 11
5.186838815397319
 21
6.191430677956648
 72
     1
 10
5.186838815397319
 20
6.191430677956648
 11
5.173112677873472
 21
6.108416029029071
 72
     1
 10
5.173112677873472
 20
6.108416029029071
 11
5.159047455924628
 21
6.191430677956648
 97
        0
 75
     0
 76
     1
 98
        0
  0
INSERT
  5
4C5
330
3C
100
AcDbEntity
  8
LAYER_1
100
AcDbBlockReference
  2
BLOCK_7
 10
0.0
 20
0.0
 30
0.0
  0
POLYLINE
  5
4D4
330
3C
100
AcDbEntity
  8
LAYER_1
100
AcDb2dPolyline
 66
     1
 10
0.0
 20
0.0
 30
0.0
  0
VERTEX
  5
4D5
330
4D4
100
AcDbEntity
  8
LAYER_1
100
AcDbVertex
100
AcDb2dVertex
 10
5.453942398655349
 20
7.570554851301311
 30
0.0
  0
VERTEX
  5
4D6
330
4D4
100
AcDbEntity
  8
LAYER_1
100
AcDbVertex
100
AcDb2dVertex
 10
5.453942398655349
 20
7.543109357942116
 30
0.0
  0
VERTEX
  5
4D7
330
4D4
100
AcDbEntity
  8
LAYER_1
100
AcDbVertex
100
AcDb2dVertex
 10
5.370920968039272
 20
7.556828713777463
 30
0.0
  0
SEQEND
  5
4D8
330
4D4
100
AcDbEntity
  8
LAYER_1
  0
HATCH
  5
4D9
330
3C
100
AcDbEntity
  8
LAYER_1
 62
     7
100
AcDbHatch
 10
0.0
 20
0.0
 30
0.0
210
0.0
220
0.0
230
1.0
  2
SOLID
 70
     1
 71
     0
 91
        1
 92
        1
 93
        3
 72
     1
 10
5.453942398655349
 20
7.570554851301311
 11
5.453942398655349
 21
7.543109357942116
 72
     1
 10
5.453942398655349
 20
7.543109357942116
 11
5.370920968039272
 21
7.556828713777463
 72
     1
 10
5.370920968039272
 20
7.556828713777463
 11
5.453942398655349
 21
7.570554851301311
 97
        0
 75
     0
 76
     1
 98
        0
  0
POLYLINE
  5
4DA
330
3C
100
AcDbEntity
  8
LAYER_1
100
AcDb2dPolyline
 66
     1
 10
0.0
 20
0.0
 30
0.0
  0
VERTEX
  5
4DB
330
4DA
100
AcDbEntity
  8
LAYER_1
100
AcDbVertex
100
AcDb2dVertex
 10
5.82609433677721
 20
7.570554851301311
 30
0.0
  0
VERTEX
  5
4DC
330
4DA
100
AcDbEntity
  8
LAYER_1
100
AcDbVertex
100
AcDb2dVertex
 10
5.82609433677721
 20
7.543109357942116
 30
0.0
  0
VERTEX
  5
4DD
330
4DA
100
AcDbEntity
  8
LAYER_1
100
AcDbVertex
100
AcDb2dVertex
 10
5.909102204016287
 20
7.556828713777463
 30
0.0
  0
SEQEND
  5
4DE
330
4DA
100
AcDbEntity
  8
LAYER_1
  0
HATCH
  5
4DF
330
3C
100
AcDbEntity
  8
LAYER_1
 62
     7
100
AcDbHatch
 10
0.0
 20
0.0
 30
0.0
210
0.0
220
0.0
230
1.0
  2
SOLID
 70
     1
 71
     0
 91
        1
 92
        1
 93
        3
 72
     1
 10
5.82609433677721
 20
7.570554851301311
 11
5.82609433677721
 21
7.543109357942116
 72
     1
 10
5.82609433677721
 20
7.543109357942116
 11
5.909102204016287
 21
7.556828713777463
 72
     1
 10
5.909102204016287
 20
7.556828713777463
 11
5.82609433677721
 21
7.570554851301311
 97
        0
 75
     0
 76
     1
 98
        0
  0
INSERT
  5
4E1
330
3C
100
AcDbEntity
  8
LAYER_1
100
AcDbBlockReference
  2
BLOCK_8
 10
0.0
 20
0.0
 30
0.0
  0
POLYLINE
  5
4E8
330
3C
100
AcDbEntity
  8
LAYER_1
 62
     7
100
AcDb2dPolyline
 66
     1
 10
0.0
 20
0.0
 30
0.0
  0
VERTEX
  5
4E9
330
4E8
100
AcDbEntity
  8
LAYER_1
 62
     7
100
AcDbVertex
100
AcDb2dVertex
 10
4.774824112272901
 20
7.262103313259241
 30
0.0
  0
VERTEX
  5
4EA
330
4E8
100
AcDbEntity
  8
LAYER_1
 62
     7
100
AcDbVertex
100
AcDb2dVertex
 10
4.774824112272901
 20
7.321904242451576
 30
0.0
  0
SEQEND
  5
4EB
330
4E8
100
AcDbEntity
  8
LAYER_1
  0
POLYLINE
  5
4EC
330
3C
100
AcDbEntity
  8
LAYER_1
 62
     7
100
AcDb2dPolyline
 66
     1
 10
0.0
 20
0.0
 30
0.0
  0
VERTEX
  5
4ED
330
4EC
100
AcDbEntity
  8
LAYER_1
 62
     7
100
AcDbVertex
100
AcDb2dVertex
 10
4.744943992742233
 20
7.292024122920909
 30
0.0
  0
VERTEX
  5
4EE
330
4EC
100
AcDbEntity
  8
LAYER_1
 62
     7
100
AcDbVertex
100
AcDb2dVertex
 10
4.804717795180569
 20
7.292024122920909
 30
0.0
  0
SEQEND
  5
4EF
330
4EC
100
AcDbEntity
  8
LAYER_1
  0
POLYLINE
  5
4F0
330
3C
100
AcDbEntity
  8
LAYER_1
 62
     7
100
AcDb2dPolyline
 66
     1
 10
0.0
 20
0.0
 30
0.0
  0
VERTEX
  5
4F1
330
4F0
100
AcDbEntity
  8
LAYER_1
 62
     7
100
AcDbVertex
100
AcDb2dVertex
 10
4.076988365630662
 20
7.262103313259241
 30
0.0
  0
VERTEX
  5
4F2
330
4F0
100
AcDbEntity
  8
LAYER_1
 62
     7
100
AcDbVertex
100
AcDb2dVertex
 10
4.076988365630662
 20
7.321904242451576
 30
0.0
  0
SEQEND
  5
4F3
330
4F0
100
AcDbEntity
  8
LAYER_1
  0
POLYLINE
  5
4F4
330
3C
100
AcDbEntity
  8
LAYER_1
 62
     7
100
AcDb2dPolyline
 66
     1
 10
0.0
 20
0.0
 30
0.0
  0
VERTEX
  5
4F5
330
4F4
100
AcDbEntity
  8
LAYER_1
 62
     7
100
AcDbVertex
100
AcDb2dVertex
 10
4.047094682722994
 20
7.292024122920909
 30
0.0
  0
VERTEX
  5
4F6
330
4F4
100
AcDbEntity
  8
LAYER_1
 62
     7
100
AcDbVertex
100
AcDb2dVertex
 10
4.106882048538329
 20
7.292024122920909
 30
0.0
  0
SEQEND
  5
4F7
330
4F4
100
AcDbEntity
  8
LAYER_1
  0
POLYLINE
  5
4F8
330
3C
100
AcDbEntity
  8
LAYER_1
 62
     7
100
AcDb2dPolyline
 66
     1
 10
0.0
 20
0.0
 30
0.0
  0
VERTEX
  5
4F9
330
4F8
100
AcDbEntity
  8
LAYER_1
 62
     7
100
AcDbVertex
100
AcDb2dVertex
 10
4.774824112272901
 20
6.200579175743046
 30
0.0
  0
VERTEX
  5
4FA
330
4F8
100
AcDbEntity
  8
LAYER_1
 62
     7
100
AcDbVertex
100
AcDb2dVertex
 10
4.774824112272901
 20
6.260352978181381
 30
0.0
  0
SEQEND
  5
4FB
330
4F8
100
AcDbEntity
  8
LAYER_1
  0
POLYLINE
  5
4FC
330
3C
100
AcDbEntity
  8
LAYER_1
 62
     7
100
AcDb2dPolyline
 66
     1
 10
0.0
 20
0.0
 30
0.0
  0
VERTEX
  5
4FD
330
4FC
100
AcDbEntity
  8
LAYER_1
 62
     7
100
AcDbVertex
100
AcDb2dVertex
 10
4.744943992742233
 20
6.230472858650714
 30
0.0
  0
VERTEX
  5
4FE
330
4FC
100
AcDbEntity
  8
LAYER_1
 62
     7
100
AcDbVertex
100
AcDb2dVertex
 10
4.804717795180569
 20
6.230472858650714
 30
0.0
  0
SEQEND
  5
4FF
330
4FC
100
AcDbEntity
  8
LAYER_1
  0
POLYLINE
  5
500
330
3C
100
AcDbEntity
  8
LAYER_1
 62
     7
100
AcDb2dPolyline
 66
     1
 10
0.0
 20
0.0
 30
0.0
  0
VERTEX
  5
501
330
500
100
AcDbEntity
  8
LAYER_1
 62
     7
100
AcDbVertex
100
AcDb2dVertex
 10
4.076988365630662
 20
6.200579175743046
 30
0.0
  0
VERTEX
  5
502
330
500
100
AcDbEntity
  8
LAYER_1
 62
     7
100
AcDbVertex
100
AcDb2dVertex
 10
4.076988365630662
 20
6.260352978181381
 30
0.0
  0
SEQEND
  5
503
330
500
100
AcDbEntity
  8
LAYER_1
  0
POLYLINE
  5
504
330
3C
100
AcDbEntity
  8
LAYER_1
 62
     7
100
AcDb2dPolyline
 66
     1
 10
0.0
 20
0.0
 30
0.0
  0
VERTEX
  5
505
330
504
100
AcDbEntity
  8
LAYER_1
 62
     7
100
AcDbVertex
100
AcDb2dVertex
 10
4.047094682722994
 20
6.230472858650714
 30
0.0
  0
VERTEX
  5
506
330
504
100
AcDbEntity
  8
LAYER_1
 62
     7
100
AcDbVertex
100
AcDb2dVertex
 10
4.106882048538329
 20
6.230472858650714
 30
0.0
  0
SEQEND
  5
507
330
504
100
AcDbEntity
  8
LAYER_1
  0
POLYLINE
  5
508
330
3C
100
AcDbEntity
  8
LAYER_1
 62
     7
100
AcDb2dPolyline
 66
     1
 10
0.0
 20
0.0
 30
0.0
  0
VERTEX
  5
509
330
508
100
AcDbEntity
  8
LAYER_1
 62
     7
100
AcDbVertex
100
AcDb2dVertex
 10
4.159996232869738
 20
7.556489629352467
 30
0.0
  0
VERTEX
  5
50A
330
508
100
AcDbEntity
  8
LAYER_1
 62
     7
100
AcDbVertex
100
AcDb2dVertex
 10
4.691829808410824
 20
7.556489629352467
 30
0.0
  0
SEQEND
  5
50B
330
508
100
AcDbEntity
  8
LAYER_1
  0
POLYLINE
  5
50C
330
3C
100
AcDbEntity
  8
LAYER_1
 62
     7
100
AcDb2dPolyline
 66
     1
 10
0.0
 20
0.0
 30
0.0
  0
VERTEX
  5
50D
330
50C
100
AcDbEntity
  8
LAYER_1
 62
     7
100
AcDbVertex
100
AcDb2dVertex
 10
4.7748512390269
 20
7.34759327848929
 30
0.0
  0
VERTEX
  5
50E
330
50C
100
AcDbEntity
  8
LAYER_1
 62
     7
100
AcDbVertex
100
AcDb2dVertex
 10
4.7748512390269
 20
7.612065566609349
 30
0.0
  0
SEQEND
  5
50F
330
50C
100
AcDbEntity
  8
LAYER_1
  0
POLYLINE
  5
510
330
3C
100
AcDbEntity
  8
LAYER_1
 62
     7
100
AcDb2dPolyline
 66
     1
 10
0.0
 20
0.0
 30
0.0
  0
VERTEX
  5
511
330
510
100
AcDbEntity
  8
LAYER_1
 62
     7
100
AcDbVertex
100
AcDb2dVertex
 10
4.076988365630662
 20
7.34759327848929
 30
0.0
  0
VERTEX
  5
512
330
510
100
AcDbEntity
  8
LAYER_1
 62
     7
100
AcDbVertex
100
AcDb2dVertex
 10
4.076988365630662
 20
7.612065566609349
 30
0.0
  0
SEQEND
  5
513
330
510
100
AcDbEntity
  8
LAYER_1
  0
POLYLINE
  5
514
330
3C
100
AcDbEntity
  8
LAYER_1
100
AcDb2dPolyline
 66
     1
 10
0.0
 20
0.0
 30
0.0
  0
VERTEX
  5
515
330
514
100
AcDbEntity
  8
LAYER_1
100
AcDbVertex
100
AcDb2dVertex
 10
4.159996232869738
 20
7.570554851301311
 30
0.0
  0
VERTEX
  5
516
330
514
100
AcDbEntity
  8
LAYER_1
100
AcDbVertex
100
AcDb2dVertex
 10
4.159996232869738
 20
7.54276349182862
 30
0.0
  0
VERTEX
  5
517
330
514
100
AcDbEntity
  8
LAYER_1
100
AcDbVertex
100
AcDb2dVertex
 10
4.076988365630662
 20
7.556489629352467
 30
0.0
  0
SEQEND
  5
518
330
514
100
AcDbEntity
  8
LAYER_1
  0
HATCH
  5
519
330
3C
100
AcDbEntity
  8
LAYER_1
 62
     7
100
AcDbHatch
 10
0.0
 20
0.0
 30
0.0
210
0.0
220
0.0
230
1.0
  2
SOLID
 70
     1
 71
     0
 91
        1
 92
        1
 93
        3
 72
     1
 10
4.159996232869738
 20
7.570554851301311
 11
4.159996232869738
 21
7.54276349182862
 72
     1
 10
4.159996232869738
 20
7.54276349182862
 11
4.076988365630662
 21
7.556489629352467
 72
     1
 10
4.076988365630662
 20
7.556489629352467
 11
4.159996232869738
 21
7.570554851301311
 97
        0
 75
     0
 76
     1
 98
        0
  0
POLYLINE
  5
51A
330
3C
100
AcDbEntity
  8
LAYER_1
100
AcDb2dPolyline
 66
     1
 10
0.0
 20
0.0
 30
0.0
  0
VERTEX
  5
51B
330
51A
100
AcDbEntity
  8
LAYER_1
100
AcDbVertex
100
AcDb2dVertex
 10
4.691829808410824
 20
7.570554851301311
 30
0.0
  0
VERTEX
  5
51C
330
51A
100
AcDbEntity
  8
LAYER_1
100
AcDbVertex
100
AcDb2dVertex
 10
4.691829808410824
 20
7.54276349182862
 30
0.0
  0
VERTEX
  5
51D
330
51A
100
AcDbEntity
  8
LAYER_1
100
AcDbVertex
100
AcDb2dVertex
 10
4.774824112272901
 20
7.556489629352467
 30
0.0
  0
SEQEND
  5
51E
330
51A
100
AcDbEntity
  8
LAYER_1
  0
HATCH
  5
51F
330
3C
100
AcDbEntity
  8
LAYER_1
 62
     7
100
AcDbHatch
 10
0.0
 20
0.0
 30
0.0
210
0.0
220
0.0
230
1.0
  2
SOLID
 70
     1
 71
     0
 91
        1
 92
        1
 93
        3
 72
     1
 10
4.691829808410824
 20
7.570554851301311
 11
4.691829808410824
 21
7.54276349182862
 72
     1
 10
4.691829808410824
 20
7.54276349182862
 11
4.774824112272901
 21
7.556489629352467
 72
     1
 10
4.774824112272901
 20
7.556489629352467
 11
4.691829808410824
 21
7.570554851301311
 97
        0
 75
     0
 76
     1
 98
        0
  0
INSERT
  5
521
330
3C
100
AcDbEntity
  8
LAYER_1
100
AcDbBlockReference
  2
BLOCK_9
 10
0.0
 20
0.0
 30
0.0
  0
POLYLINE
  5
530
330
3C
100
AcDbEntity
  8
LAYER_1
100
AcDb2dPolyline
 66
     1
 10
0.0
 20
0.0
 30
0.0
  0
VERTEX
  5
531
330
530
100
AcDbEntity
  8
LAYER_1
100
AcDbVertex
100
AcDb2dVertex
 10
4.99429311550746
 20
7.208995910616331
 30
0.0
  0
VERTEX
  5
532
330
530
100
AcDbEntity
  8
LAYER_1
100
AcDbVertex
100
AcDb2dVertex
 10
5.022070911603151
 20
7.208995910616331
 30
0.0
  0
VERTEX
  5
533
330
530
100
AcDbEntity
  8
LAYER_1
100
AcDbVertex
100
AcDb2dVertex
 10
5.008358337456304
 20
7.292024122920909
 30
0.0
  0
SEQEND
  5
534
330
530
100
AcDbEntity
  8
LAYER_1
  0
HATCH
  5
535
330
3C
100
AcDbEntity
  8
LAYER_1
 62
     7
100
AcDbHatch
 10
0.0
 20
0.0
 30
0.0
210
0.0
220
0.0
230
1.0
  2
SOLID
 70
     1
 71
     0
 91
        1
 92
        1
 93
        3
 72
     1
 10
4.99429311550746
 20
7.208995910616331
 11
5.022070911603151
 21
7.208995910616331
 72
     1
 10
5.022070911603151
 20
7.208995910616331
 11
5.008358337456304
 21
7.292024122920909
 72
     1
 10
5.008358337456304
 20
7.292024122920909
 11
4.99429311550746
 21
7.208995910616331
 97
        0
 75
     0
 76
     1
 98
        0
  0
POLYLINE
  5
536
330
3C
100
AcDbEntity
  8
LAYER_1
100
AcDb2dPolyline
 66
     1
 10
0.0
 20
0.0
 30
0.0
  0
VERTEX
  5
537
330
536
100
AcDbEntity
  8
LAYER_1
100
AcDbVertex
100
AcDb2dVertex
 10
4.99429311550746
 20
6.31348072588979
 30
0.0
  0
VERTEX
  5
538
330
536
100
AcDbEntity
  8
LAYER_1
100
AcDbVertex
100
AcDb2dVertex
 10
5.022070911603151
 20
6.31348072588979
 30
0.0
  0
VERTEX
  5
539
330
536
100
AcDbEntity
  8
LAYER_1
100
AcDbVertex
100
AcDb2dVertex
 10
5.008358337456304
 20
6.230452513585214
 30
0.0
  0
SEQEND
  5
53A
330
536
100
AcDbEntity
  8
LAYER_1
  0
HATCH
  5
53B
330
3C
100
AcDbEntity
  8
LAYER_1
 62
     7
100
AcDbHatch
 10
0.0
 20
0.0
 30
0.0
210
0.0
220
0.0
230
1.0
  2
SOLID
 70
     1
 71
     0
 91
        1
 92
        1
 93
        3
 72
     1
 10
4.99429311550746
 20
6.31348072588979
 11
5.022070911603151
 21
6.31348072588979
 72
     1
 10
5.022070911603151
 20
6.31348072588979
 11
5.008358337456304
 21
6.230452513585214
 72
     1
 10
5.008358337456304
 20
6.230452513585214
 11
4.99429311550746
 21
6.31348072588979
 97
        0
 75
     0
 76
     1
 98
        0
  0
ENDBLK
  5
3F
330
3C
100
AcDbEntity
  8
0
100
AcDbBlockEnd
  0
BLOCK
  5
42
330
40
100
AcDbEntity
  8
0
100
AcDbBlockBegin
  2
BLOCK_3
 70
     0
 71
     0
 10
0.0
 20
0.0
 30
0.0
  3
BLOCK_3
  1

  0
POLYLINE
  5
44
330
40
100
AcDbEntity
  8
LAYER_1
 62
     7
100
AcDb2dPolyline
 66
     1
 10
0.0
 20
0.0
 30
0.0
  0
VERTEX
  5
45
330
44
100
AcDbEntity
  8
LAYER_1
 62
     7
100
AcDbVertex
100
AcDb2dVertex
 10
4.302099733697158
 20
8.516173150665296
 30
0.0
  0
VERTEX
  5
46
330
44
100
AcDbEntity
  8
LAYER_1
 62
     7
100
AcDbVertex
100
AcDb2dVertex
 10
4.300702705866174
 20
8.515827284551799
 30
0.0
  0
VERTEX
  5
47
330
44
100
AcDbEntity
  8
LAYER_1
 62
     7
100
AcDbVertex
100
AcDb2dVertex
 10
4.299997410262182
 20
8.514416693343815
 30
0.0
  0
SEQEND
  5
48
330
44
100
AcDbEntity
  8
LAYER_1
  0
SPLINE
  5
49
330
40
100
AcDbEntity
  8
LAYER_1
 62
     7
100
AcDbSpline
210
0.0
220
0.0
230
1.0
 70
     8
 71
     3
 72
    20
 73
    16
 74
     0
 42
0.0000000001
 43
0.0000000001
 40
0.0
 40
0.0
 40
0.0
 40
0.0
 40
1.0
 40
1.0
 40
1.0
 40
2.0
 40
2.0
 40
2.0
 40
3.0
 40
3.0
 40
3.0
 40
4.0
 40
4.0
 40
4.0
 40
5.0
 40
5.0
 40
5.0
 40
5.0
 10
4.296823580044217
 20
8.504217033839929
 30
0.0
 10
4.296823580044217
 20
8.504217033839929
 30
0.0
 10
4.297149101092213
 20
8.504217033839929
 30
0.0
 10
4.297149101092213
 20
8.504217033839929
 30
0.0
 10
4.297149101092213
 20
8.504217033839929
 30
0.0
 10
4.297149101092213
 20
8.50491554775542
 30
0.0
 10
4.297149101092213
 20
8.50491554775542
 30
0.0
 10
4.297149101092213
 20
8.50491554775542
 30
0.0
 10
4.297528875648209
 20
8.505268195557417
 30
0.0
 10
4.297528875648209
 20
8.505268195557417
 30
0.0
 10
4.297528875648209
 20
8.505268195557417
 30
0.0
 10
4.297528875648209
 20
8.50597349116141
 30
0.0
 10
4.297528875648209
 20
8.50597349116141
 30
0.0
 10
4.2983426782682
 20
8.508808236954376
 30
0.0
 10
4.299102227380192
 20
8.511602292616345
 30
0.0
 10
4.299997410262182
 20
8.514416693343815
 30
0.0
  0
SPLINE
  5
4A
330
40
100
AcDbEntity
  8
LAYER_1
 62
     7
100
AcDbSpline
210
0.0
220
0.0
230
1.0
 70
     8
 71
     3
 72
     8
 73
     4
 74
     0
 42
0.0000000001
 43
0.0000000001
 40
0.0
 40
0.0
 40
0.0
 40
0.0
 40
1.0
 40
1.0
 40
1.0
 40
1.0
 10
4.297149101092213
 20
8.504217033839929
 30
0.0
 10
4.297203354600213
 20
8.506570279749402
 30
0.0
 10
4.299943156754182
 20
8.511778616517343
 30
0.0
 10
4.299997410262182
 20
8.514416693343815
 30
0.0
  0
SPLINE
  5
4B
330
40
100
AcDbEntity
  8
LAYER_1
 62
     7
100
AcDbSpline
210
0.0
220
0.0
230
1.0
 70
     8
 71
     3
 72
    26
 73
    22
 74
     0
 42
0.0000000001
 43
0.0000000001
 40
0.0
 40
0.0
 40
0.0
 40
0.0
 40
1.0
 40
1.0
 40
1.0
 40
2.0
 40
2.0
 40
2.0
 40
3.0
 40
3.0
 40
3.0
 40
4.0
 40
4.0
 40
4.0
 40
5.0
 40
5.0
 40
5.0
 40
6.0
 40
6.0
 40
6.0
 40
7.0
 40
7.0
 40
7.0
 40
7.0
 10
4.358021537067536
 20
8.52110343820474
 30
0.0
 10
4.360245930895512
 20
8.520974586123241
 30
0.0
 10
4.363528268129475
 20
8.521673100038734
 30
0.0
 10
4.36577978871145
 20
8.521801952120233
 30
0.0
 10
4.36577978871145
 20
8.521801952120233
 30
0.0
 10
4.366471520938442
 20
8.522147818233728
 30
0.0
 10
4.366471520938442
 20
8.522147818233728
 30
0.0
 10
4.366471520938442
 20
8.522147818233728
 30
0.0
 10
4.367163253165435
 20
8.522147818233728
 30
0.0
 10
4.367163253165435
 20
8.522147818233728
 30
0.0
 10
4.367163253165435
 20
8.522147818233728
 30
0.0
 10
4.367882112146426
 20
8.522507247724224
 30
0.0
 10
4.367882112146426
 20
8.522507247724224
 30
0.0
 10
4.367882112146426
 20
8.522507247724224
 30
0.0
 10
4.368926492175415
 20
8.522507247724224
 30
0.0
 10
4.368926492175415
 20
8.522507247724224
 30
0.0
 10
4.368926492175415
 20
8.522507247724224
 30
0.0
 10
4.369279139977411
 20
8.522853113837721
 30
0.0
 10
4.369279139977411
 20
8.522853113837721
 30
0.0
 10
4.369279139977411
 20
8.522853113837721
 30
0.0
 10
4.369984435581403
 20
8.522853113837721
 30
0.0
 10
4.369984435581403
 20
8.522853113837721
 30
0.0
  0
POLYLINE
  5
4C
330
40
100
AcDbEntity
  8
LAYER_1
 62
     7
100
AcDb2dPolyline
 66
     1
 10
0.0
 20
0.0
 30
0.0
  0
VERTEX
  5
4D
330
4C
100
AcDbEntity
  8
LAYER_1
 62
     7
100
AcDbVertex
100
AcDb2dVertex
 10
4.369984435581403
 20
8.522853113837721
 30
0.0
  0
VERTEX
  5
4E
330
4C
100
AcDbEntity
  8
LAYER_1
 62
     7
100
AcDbVertex
100
AcDb2dVertex
 10
4.370337083383399
 20
8.522853113837721
 30
0.0
  0
SEQEND
  5
4F
330
4C
100
AcDbEntity
  8
LAYER_1
  0
POLYLINE
  5
50
330
40
100
AcDbEntity
  8
LAYER_1
 62
     7
100
AcDb2dPolyline
 66
     1
 10
0.0
 20
0.0
 30
0.0
  0
VERTEX
  5
51
330
50
100
AcDbEntity
  8
LAYER_1
 62
     7
100
AcDbVertex
100
AcDb2dVertex
 10
4.299997410262182
 20
8.514416693343815
 30
0.0
  0
VERTEX
  5
52
330
50
100
AcDbEntity
  8
LAYER_1
 62
     7
100
AcDbVertex
100
AcDb2dVertex
 10
4.300336494687178
 20
8.514416693343815
 30
0.0
  0
SEQEND
  5
53
330
50
100
AcDbEntity
  8
LAYER_1
  0
SPLINE
  5
54
330
40
100
AcDbEntity
  8
LAYER_1
 62
     7
100
AcDbSpline
210
0.0
220
0.0
230
1.0
 70
     8
 71
     3
 72
     8
 73
     4
 74
     0
 42
0.0000000001
 43
0.0000000001
 40
0.0
 40
0.0
 40
0.0
 40
0.0
 40
1.0
 40
1.0
 40
1.0
 40
1.0
 10
4.595434888072896
 20
8.53200161162412
 30
0.0
 10
4.597686408654871
 20
8.532191498902117
 30
0.0
 10
4.600616098086839
 20
8.53020446417164
 30
0.0
 10
4.600371957300841
 20
8.527783401377166
 30
0.0
  0
POLYLINE
  5
55
330
40
100
AcDbEntity
  8
LAYER_1
 62
     7
100
AcDb2dPolyline
 66
     1
 10
0.0
 20
0.0
 30
0.0
  0
VERTEX
  5
56
330
55
100
AcDbEntity
  8
LAYER_1
 62
     7
100
AcDbVertex
100
AcDb2dVertex
 10
4.522301159289709
 20
8.458128678794441
 30
0.0
  0
VERTEX
  5
57
330
55
100
AcDbEntity
  8
LAYER_1
 62
     7
100
AcDbVertex
100
AcDb2dVertex
 10
4.529679636377627
 20
8.457430164878948
 30
0.0
  0
SEQEND
  5
58
330
55
100
AcDbEntity
  8
LAYER_1
  0
POLYLINE
  5
59
330
40
100
AcDbEntity
  8
LAYER_1
 62
     7
100
AcDb2dPolyline
 66
     1
 10
0.0
 20
0.0
 30
0.0
  0
VERTEX
  5
5A
330
59
100
AcDbEntity
  8
LAYER_1
 62
     7
100
AcDbVertex
100
AcDb2dVertex
 10
4.294355045430244
 20
8.501056766998964
 30
0.0
  0
VERTEX
  5
5B
330
59
100
AcDbEntity
  8
LAYER_1
 62
     7
100
AcDbVertex
100
AcDb2dVertex
 10
4.292958017599259
 20
8.500704119196968
 30
0.0
  0
VERTEX
  5
5C
330
59
100
AcDbEntity
  8
LAYER_1
 62
     7
100
AcDbVertex
100
AcDb2dVertex
 10
4.291900074193271
 20
8.498927316809986
 30
0.0
  0
SEQEND
  5
5D
330
59
100
AcDbEntity
  8
LAYER_1
  0
POLYLINE
  5
5E
330
40
100
AcDbEntity
  8
LAYER_1
 62
     7
100
AcDb2dPolyline
 66
     1
 10
0.0
 20
0.0
 30
0.0
  0
VERTEX
  5
5F
330
5E
100
AcDbEntity
  8
LAYER_1
 62
     7
100
AcDbVertex
100
AcDb2dVertex
 10
4.296823580044217
 20
8.504217033839929
 30
0.0
  0
VERTEX
  5
60
330
5E
100
AcDbEntity
  8
LAYER_1
 62
     7
100
AcDbVertex
100
AcDb2dVertex
 10
4.296118284440225
 20
8.501056766998964
 30
0.0
  0
SEQEND
  5
61
330
5E
100
AcDbEntity
  8
LAYER_1
  0
POLYLINE
  5
62
330
40
100
AcDbEntity
  8
LAYER_1
 62
     7
100
AcDb2dPolyline
 66
     1
 10
0.0
 20
0.0
 30
0.0
  0
VERTEX
  5
63
330
62
100
AcDbEntity
  8
LAYER_1
 62
     7
100
AcDbVertex
100
AcDb2dVertex
 10
4.358021537067536
 20
8.52110343820474
 30
0.0
  0
VERTEX
  5
64
330
62
100
AcDbEntity
  8
LAYER_1
 62
     7
100
AcDbVertex
100
AcDb2dVertex
 10
4.302099733697158
 20
8.516173150665296
 30
0.0
  0
SEQEND
  5
65
330
62
100
AcDbEntity
  8
LAYER_1
  0
POLYLINE
  5
66
330
40
100
AcDbEntity
  8
LAYER_1
 62
     7
100
AcDb2dPolyline
 66
     1
 10
0.0
 20
0.0
 30
0.0
  0
VERTEX
  5
67
330
66
100
AcDbEntity
  8
LAYER_1
 62
     7
100
AcDbVertex
100
AcDb2dVertex
 10
4.600371957300841
 20
8.527783401377166
 30
0.0
  0
VERTEX
  5
68
330
66
100
AcDbEntity
  8
LAYER_1
 62
     7
100
AcDbVertex
100
AcDb2dVertex
 10
4.600724605102837
 20
8.527783401377166
 30
0.0
  0
SEQEND
  5
69
330
66
100
AcDbEntity
  8
LAYER_1
  0
POLYLINE
  5
6A
330
40
100
AcDbEntity
  8
LAYER_1
 62
     7
100
AcDb2dPolyline
 66
     1
 10
0.0
 20
0.0
 30
0.0
  0
VERTEX
  5
6B
330
6A
100
AcDbEntity
  8
LAYER_1
 62
     7
100
AcDbVertex
100
AcDb2dVertex
 10
4.522301159289709
 20
8.458128678794441
 30
0.0
  0
VERTEX
  5
6C
330
6A
100
AcDbEntity
  8
LAYER_1
 62
     7
100
AcDbVertex
100
AcDb2dVertex
 10
4.521948511487714
 20
8.458128678794441
 30
0.0
  0
SEQEND
  5
6D
330
6A
100
AcDbEntity
  8
LAYER_1
  0
SPLINE
  5
6E
330
40
100
AcDbEntity
  8
LAYER_1
 62
     7
100
AcDbSpline
210
0.0
220
0.0
230
1.0
 70
     8
 71
     3
 72
     8
 73
     4
 74
     0
 42
0.0000000001
 43
0.0000000001
 40
0.0
 40
0.0
 40
0.0
 40
0.0
 40
1.0
 40
1.0
 40
1.0
 40
1.0
 10
4.291900074193271
 20
8.498927316809986
 30
0.0
 10
4.29023177882229
 20
8.48511301733564
 30
0.0
 10
4.287776807585318
 20
8.471332626303793
 30
0.0
 10
4.28662392054033
 20
8.457430164878948
 30
0.0
  0
POLYLINE
  5
6F
330
40
100
AcDbEntity
  8
LAYER_1
 62
     7
100
AcDb2dPolyline
 66
     1
 10
0.0
 20
0.0
 30
0.0
  0
VERTEX
  5
70
330
6F
100
AcDbEntity
  8
LAYER_1
 62
     7
100
AcDbVertex
100
AcDb2dVertex
 10
4.294355045430244
 20
8.501056766998964
 30
0.0
  0
VERTEX
  5
71
330
6F
100
AcDbEntity
  8
LAYER_1
 62
     7
100
AcDbVertex
100
AcDb2dVertex
 10
4.296470932242221
 20
8.501056766998964
 30
0.0
  0
SEQEND
  5
72
330
6F
100
AcDbEntity
  8
LAYER_1
  0
SPLINE
  5
73
330
40
100
AcDbEntity
  8
LAYER_1
 62
     7
100
AcDbSpline
210
0.0
220
0.0
230
1.0
 70
     8
 71
     3
 72
     8
 73
     4
 74
     0
 42
0.0000000001
 43
0.0000000001
 40
0.0
 40
0.0
 40
0.0
 40
0.0
 40
1.0
 40
1.0
 40
1.0
 40
1.0
 10
4.28662392054033
 20
8.457430164878948
 30
0.0
 10
4.289540046595298
 20
8.471325844615293
 30
0.0
 10
4.292510426158265
 20
8.484814623041643
 30
0.0
 10
4.295765636638229
 20
8.49859501407349
 30
0.0
  0
POLYLINE
  5
74
330
40
100
AcDbEntity
  8
LAYER_1
 62
     7
100
AcDb2dPolyline
 66
     1
 10
0.0
 20
0.0
 30
0.0
  0
VERTEX
  5
75
330
74
100
AcDbEntity
  8
LAYER_1
 62
     7
100
AcDbVertex
100
AcDb2dVertex
 10
4.296470932242221
 20
8.501056766998964
 30
0.0
  0
VERTEX
  5
76
330
74
100
AcDbEntity
  8
LAYER_1
 62
     7
100
AcDbVertex
100
AcDb2dVertex
 10
4.296470932242221
 20
8.500704119196968
 30
0.0
  0
VERTEX
  5
77
330
74
100
AcDbEntity
  8
LAYER_1
 62
     7
100
AcDbVertex
100
AcDb2dVertex
 10
4.296118284440225
 20
8.500704119196968
 30
0.0
  0
VERTEX
  5
78
330
74
100
AcDbEntity
  8
LAYER_1
 62
     7
100
AcDbVertex
100
AcDb2dVertex
 10
4.296118284440225
 20
8.498927316809986
 30
0.0
  0
VERTEX
  5
79
330
74
100
AcDbEntity
  8
LAYER_1
 62
     7
100
AcDbVertex
100
AcDb2dVertex
 10
4.295765636638229
 20
8.498927316809986
 30
0.0
  0
VERTEX
  5
7A
330
74
100
AcDbEntity
  8
LAYER_1
 62
     7
100
AcDbVertex
100
AcDb2dVertex
 10
4.295765636638229
 20
8.49859501407349
 30
0.0
  0
SEQEND
  5
7B
330
74
100
AcDbEntity
  8
LAYER_1
  0
POLYLINE
  5
7C
330
40
100
AcDbEntity
  8
LAYER_1
 62
     7
100
AcDb2dPolyline
 66
     1
 10
0.0
 20
0.0
 30
0.0
  0
VERTEX
  5
7D
330
7C
100
AcDbEntity
  8
LAYER_1
 62
     7
100
AcDbVertex
100
AcDb2dVertex
 10
4.595434888072896
 20
8.53200161162412
 30
0.0
  0
VERTEX
  5
7E
330
7C
100
AcDbEntity
  8
LAYER_1
 62
     7
100
AcDbVertex
100
AcDb2dVertex
 10
4.520537920279729
 20
8.530597802104635
 30
0.0
  0
VERTEX
  5
7F
330
7C
100
AcDbEntity
  8
LAYER_1
 62
     7
100
AcDbVertex
100
AcDb2dVertex
 10
4.445261177930566
 20
8.52743075357517
 30
0.0
  0
VERTEX
  5
80
330
7C
100
AcDbEntity
  8
LAYER_1
 62
     7
100
AcDbVertex
100
AcDb2dVertex
 10
4.370337083383399
 20
8.522853113837721
 30
0.0
  0
SEQEND
  5
81
330
7C
100
AcDbEntity
  8
LAYER_1
  0
SPLINE
  5
82
330
40
100
AcDbEntity
  8
LAYER_1
 62
     7
100
AcDbSpline
210
0.0
220
0.0
230
1.0
 70
     8
 71
     3
 72
    14
 73
    10
 74
     0
 42
0.0000000001
 43
0.0000000001
 40
0.0
 40
0.0
 40
0.0
 40
0.0
 40
1.0
 40
1.0
 40
1.0
 40
2.0
 40
2.0
 40
2.0
 40
3.0
 40
3.0
 40
3.0
 40
3.0
 10
4.295765636638229
 20
8.457430164878948
 30
0.0
 10
4.299156480888191
 20
8.45728096773195
 30
0.0
 10
4.296253918210224
 20
8.457938791516442
 30
0.0
 10
4.299644762460185
 20
8.457782812680945
 30
0.0
 10
4.299644762460185
 20
8.457782812680945
 30
0.0
 10
4.299644762460185
 20
8.458128678794441
 30
0.0
 10
4.299644762460185
 20
8.458128678794441
 30
0.0
 10
4.299644762460185
 20
8.458128678794441
 30
0.0
 10
4.301055353668169
 20
8.458128678794441
 30
0.0
 10
4.301055353668169
 20
8.458128678794441
 30
0.0
  0
POLYLINE
  5
83
330
40
100
AcDbEntity
  8
LAYER_1
 62
     7
100
AcDb2dPolyline
 66
     1
 10
0.0
 20
0.0
 30
0.0
  0
VERTEX
  5
84
330
83
100
AcDbEntity
  8
LAYER_1
 62
     7
100
AcDbVertex
100
AcDb2dVertex
 10
4.521948511487714
 20
8.458128678794441
 30
0.0
  0
VERTEX
  5
85
330
83
100
AcDbEntity
  8
LAYER_1
 62
     7
100
AcDbVertex
100
AcDb2dVertex
 10
4.301055353668169
 20
8.458128678794441
 30
0.0
  0
SEQEND
  5
86
330
83
100
AcDbEntity
  8
LAYER_1
  0
POLYLINE
  5
87
330
40
100
AcDbEntity
  8
LAYER_1
 62
     7
100
AcDb2dPolyline
 66
     1
 10
0.0
 20
0.0
 30
0.0
  0
VERTEX
  5
88
330
87
100
AcDbEntity
  8
LAYER_1
 62
     7
100
AcDbVertex
100
AcDb2dVertex
 10
4.617611009467649
 20
8.447230505375062
 30
0.0
  0
VERTEX
  5
89
330
87
100
AcDbEntity
  8
LAYER_1
 62
     7
100
AcDbVertex
100
AcDb2dVertex
 10
4.616905713863657
 20
8.448641096583046
 30
0.0
  0
VERTEX
  5
8A
330
87
100
AcDbEntity
  8
LAYER_1
 62
     7
100
AcDbVertex
100
AcDb2dVertex
 10
4.615861333834669
 20
8.449346392187039
 30
0.0
  0
SEQEND
  5
8B
330
87
100
AcDbEntity
  8
LAYER_1
  0
POLYLINE
  5
8C
330
40
100
AcDbEntity
  8
LAYER_1
 62
     7
100
AcDb2dPolyline
 66
     1
 10
0.0
 20
0.0
 30
0.0
  0
VERTEX
  5
8D
330
8C
100
AcDbEntity
  8
LAYER_1
 62
     7
100
AcDbVertex
100
AcDb2dVertex
 10
4.24617793032678
 20
8.449346392187039
 30
0.0
  0
VERTEX
  5
8E
330
8C
100
AcDbEntity
  8
LAYER_1
 62
     7
100
AcDbVertex
100
AcDb2dVertex
 10
4.245119986920792
 20
8.448641096583046
 30
0.0
  0
VERTEX
  5
8F
330
8C
100
AcDbEntity
  8
LAYER_1
 62
     7
100
AcDbVertex
100
AcDb2dVertex
 10
4.244414691316799
 20
8.447230505375062
 30
0.0
  0
SEQEND
  5
90
330
8C
100
AcDbEntity
  8
LAYER_1
  0
POLYLINE
  5
91
330
40
100
AcDbEntity
  8
LAYER_1
 62
     7
100
AcDb2dPolyline
 66
     1
 10
0.0
 20
0.0
 30
0.0
  0
VERTEX
  5
92
330
91
100
AcDbEntity
  8
LAYER_1
 62
     7
100
AcDbVertex
100
AcDb2dVertex
 10
4.244414691316799
 20
8.447230505375062
 30
0.0
  0
VERTEX
  5
93
330
91
100
AcDbEntity
  8
LAYER_1
 62
     7
100
AcDbVertex
100
AcDb2dVertex
 10
4.238446805436866
 20
8.399039826894597
 30
0.0
  0
VERTEX
  5
94
330
91
100
AcDbEntity
  8
LAYER_1
 62
     7
100
AcDbVertex
100
AcDb2dVertex
 10
4.234215031812913
 20
8.350510063989137
 30
0.0
  0
SEQEND
  5
95
330
91
100
AcDbEntity
  8
LAYER_1
  0
POLYLINE
  5
96
330
40
100
AcDbEntity
  8
LAYER_1
 62
     7
100
AcDb2dPolyline
 66
     1
 10
0.0
 20
0.0
 30
0.0
  0
VERTEX
  5
97
330
96
100
AcDbEntity
  8
LAYER_1
 62
     7
100
AcDbVertex
100
AcDb2dVertex
 10
4.627824232348535
 20
8.350510063989137
 30
0.0
  0
VERTEX
  5
98
330
96
100
AcDbEntity
  8
LAYER_1
 62
     7
100
AcDbVertex
100
AcDb2dVertex
 10
4.623565331970584
 20
8.399039826894597
 30
0.0
  0
VERTEX
  5
99
330
96
100
AcDbEntity
  8
LAYER_1
 62
     7
100
AcDbVertex
100
AcDb2dVertex
 10
4.617611009467649
 20
8.447230505375062
 30
0.0
  0
SEQEND
  5
9A
330
96
100
AcDbEntity
  8
LAYER_1
  0
POLYLINE
  5
9B
330
40
100
AcDbEntity
  8
LAYER_1
 62
     7
100
AcDb2dPolyline
 66
     1
 10
0.0
 20
0.0
 30
0.0
  0
VERTEX
  5
9C
330
9B
100
AcDbEntity
  8
LAYER_1
 62
     7
100
AcDbVertex
100
AcDb2dVertex
 10
4.615861333834669
 20
8.449346392187039
 30
0.0
  0
VERTEX
  5
9D
330
9B
100
AcDbEntity
  8
LAYER_1
 62
     7
100
AcDbVertex
100
AcDb2dVertex
 10
4.595434888072896
 20
8.453917250235987
 30
0.0
  0
SEQEND
  5
9E
330
9B
100
AcDbEntity
  8
LAYER_1
  0
POLYLINE
  5
9F
330
40
100
AcDbEntity
  8
LAYER_1
 62
     7
100
AcDb2dPolyline
 66
     1
 10
0.0
 20
0.0
 30
0.0
  0
VERTEX
  5
A0
330
9F
100
AcDbEntity
  8
LAYER_1
 62
     7
100
AcDbVertex
100
AcDb2dVertex
 10
4.474110480809245
 20
8.457430164878948
 30
0.0
  0
VERTEX
  5
A1
330
9F
100
AcDbEntity
  8
LAYER_1
 62
     7
100
AcDbVertex
100
AcDb2dVertex
 10
4.574682921263126
 20
8.457430164878948
 30
0.0
  0
SEQEND
  5
A2
330
9F
100
AcDbEntity
  8
LAYER_1
  0
POLYLINE
  5
A3
330
40
100
AcDbEntity
  8
LAYER_1
 62
     7
100
AcDb2dPolyline
 66
     1
 10
0.0
 20
0.0
 30
0.0
  0
VERTEX
  5
A4
330
A3
100
AcDbEntity
  8
LAYER_1
 62
     7
100
AcDbVertex
100
AcDb2dVertex
 10
4.283463653699365
 20
8.457430164878948
 30
0.0
  0
VERTEX
  5
A5
330
A3
100
AcDbEntity
  8
LAYER_1
 62
     7
100
AcDbVertex
100
AcDb2dVertex
 10
4.360490071681509
 20
8.457430164878948
 30
0.0
  0
SEQEND
  5
A6
330
A3
100
AcDbEntity
  8
LAYER_1
  0
SPLINE
  5
A7
330
40
100
AcDbEntity
  8
LAYER_1
 62
     7
100
AcDbSpline
210
0.0
220
0.0
230
1.0
 70
     8
 71
     3
 72
     8
 73
     4
 74
     0
 42
0.0000000001
 43
0.0000000001
 40
0.0
 40
0.0
 40
0.0
 40
0.0
 40
1.0
 40
1.0
 40
1.0
 40
1.0
 10
4.075930422224673
 20
8.337136574267285
 30
0.0
 10
4.311689041236051
 20
8.363069751090997
 30
0.0
 10
4.550323096171398
 20
8.363049406025498
 30
0.0
 10
4.786081715182776
 20
8.337136574267285
 30
0.0
  0
SPLINE
  5
A8
330
40
100
AcDbEntity
  8
LAYER_1
 62
     7
100
AcDbSpline
210
0.0
220
0.0
230
1.0
 70
     8
 71
     3
 72
     8
 73
     4
 74
     0
 42
0.0000000001
 43
0.0000000001
 40
0.0
 40
0.0
 40
0.0
 40
0.0
 40
1.0
 40
1.0
 40
1.0
 40
1.0
 10
4.431887688208715
 20
8.35647794986907
 30
0.0
 10
4.5501196455164
 20
8.35655254844257
 30
0.0
 10
4.668568616856083
 20
8.350157416187141
 30
0.0
 10
4.786081715182776
 20
8.337136574267285
 30
0.0
  0
SPLINE
  5
A9
330
40
100
AcDbEntity
  8
LAYER_1
 62
     7
100
AcDbSpline
210
0.0
220
0.0
230
1.0
 70
     8
 71
     3
 72
     8
 73
     4
 74
     0
 42
0.0000000001
 43
0.0000000001
 40
0.0
 40
0.0
 40
0.0
 40
0.0
 40
1.0
 40
1.0
 40
1.0
 40
1.0
 10
4.038278487673092
 20
8.332925145708833
 30
0.0
 10
4.051109442314949
 20
8.334261138343319
 30
0.0
 10
4.063343608368813
 20
8.335698856305303
 30
0.0
 10
4.075930422224673
 20
8.337136574267285
 30
0.0
  0
POLYLINE
  5
AA
330
40
100
AcDbEntity
  8
LAYER_1
 62
     7
100
AcDb2dPolyline
 66
     1
 10
0.0
 20
0.0
 30
0.0
  0
VERTEX
  5
AB
330
AA
100
AcDbEntity
  8
LAYER_1
 62
     7
100
AcDbVertex
100
AcDb2dVertex
 10
4.038278487673092
 20
8.332925145708833
 30
0.0
  0
VERTEX
  5
AC
330
AA
100
AcDbEntity
  8
LAYER_1
 62
     7
100
AcDbVertex
100
AcDb2dVertex
 10
4.034779136407131
 20
8.331873983991345
 30
0.0
  0
VERTEX
  5
AD
330
AA
100
AcDbEntity
  8
LAYER_1
 62
     7
100
AcDbVertex
100
AcDb2dVertex
 10
4.031957953991162
 20
8.329398667688872
 30
0.0
  0
VERTEX
  5
AE
330
AA
100
AcDbEntity
  8
LAYER_1
 62
     7
100
AcDbVertex
100
AcDb2dVertex
 10
4.030221841735181
 20
8.326584266961403
 30
0.0
  0
VERTEX
  5
AF
330
AA
100
AcDbEntity
  8
LAYER_1
 62
     7
100
AcDbVertex
100
AcDb2dVertex
 10
4.02950298275419
 20
8.323071352318442
 30
0.0
  0
SEQEND
  5
B0
330
AA
100
AcDbEntity
  8
LAYER_1
  0
POLYLINE
  5
B1
330
40
100
AcDbEntity
  8
LAYER_1
 62
     7
100
AcDb2dPolyline
 66
     1
 10
0.0
 20
0.0
 30
0.0
  0
VERTEX
  5
B2
330
B1
100
AcDbEntity
  8
LAYER_1
 62
     7
100
AcDbVertex
100
AcDb2dVertex
 10
4.027048011517217
 20
8.192225454400898
 30
0.0
  0
VERTEX
  5
B3
330
B1
100
AcDbEntity
  8
LAYER_1
 62
     7
100
AcDbVertex
100
AcDb2dVertex
 10
4.02950298275419
 20
8.323071352318442
 30
0.0
  0
SEQEND
  5
B4
330
B1
100
AcDbEntity
  8
LAYER_1
  0
POLYLINE
  5
B5
330
40
100
AcDbEntity
  8
LAYER_1
 62
     7
100
AcDb2dPolyline
 66
     1
 10
0.0
 20
0.0
 30
0.0
  0
VERTEX
  5
B6
330
B5
100
AcDbEntity
  8
LAYER_1
 62
     7
100
AcDbVertex
100
AcDb2dVertex
 10
4.832522718030259
 20
8.320962247194966
 30
0.0
  0
VERTEX
  5
B7
330
B5
100
AcDbEntity
  8
LAYER_1
 62
     7
100
AcDbVertex
100
AcDb2dVertex
 10
4.834638604842236
 20
8.192225454400898
 30
0.0
  0
SEQEND
  5
B8
330
B5
100
AcDbEntity
  8
LAYER_1
  0
POLYLINE
  5
B9
330
40
100
AcDbEntity
  8
LAYER_1
 62
     7
100
AcDb2dPolyline
 66
     1
 10
0.0
 20
0.0
 30
0.0
  0
VERTEX
  5
BA
330
B9
100
AcDbEntity
  8
LAYER_1
 62
     7
100
AcDbVertex
100
AcDb2dVertex
 10
4.832522718030259
 20
8.320962247194966
 30
0.0
  0
VERTEX
  5
BB
330
B9
100
AcDbEntity
  8
LAYER_1
 62
     7
100
AcDbVertex
100
AcDb2dVertex
 10
4.831464774624271
 20
8.325180457441919
 30
0.0
  0
VERTEX
  5
BC
330
B9
100
AcDbEntity
  8
LAYER_1
 62
     7
100
AcDbVertex
100
AcDb2dVertex
 10
4.828643592208302
 20
8.32870015377338
 30
0.0
  0
VERTEX
  5
BD
330
B9
100
AcDbEntity
  8
LAYER_1
 62
     7
100
AcDbVertex
100
AcDb2dVertex
 10
4.824791593140345
 20
8.33045661109486
 30
0.0
  0
SEQEND
  5
BE
330
B9
100
AcDbEntity
  8
LAYER_1
  0
SPLINE
  5
BF
330
40
100
AcDbEntity
  8
LAYER_1
 62
     7
100
AcDbSpline
210
0.0
220
0.0
230
1.0
 70
     8
 71
     3
 72
     8
 73
     4
 74
     0
 42
0.0000000001
 43
0.0000000001
 40
0.0
 40
0.0
 40
0.0
 40
0.0
 40
1.0
 40
1.0
 40
1.0
 40
1.0
 10
4.786081715182776
 20
8.337136574267285
 30
0.0
 10
4.799129683856631
 20
8.335285173306806
 30
0.0
 10
4.812014892006488
 20
8.335129194471309
 30
0.0
 10
4.824791593140345
 20
8.33045661109486
 30
0.0
  0
POLYLINE
  5
C0
330
40
100
AcDbEntity
  8
LAYER_1
 62
     7
100
AcDb2dPolyline
 66
     1
 10
0.0
 20
0.0
 30
0.0
  0
VERTEX
  5
C1
330
C0
100
AcDbEntity
  8
LAYER_1
 62
     7
100
AcDbVertex
100
AcDb2dVertex
 10
4.834638604842236
 20
8.192225454400898
 30
0.0
  0
VERTEX
  5
C2
330
C0
100
AcDbEntity
  8
LAYER_1
 62
     7
100
AcDbVertex
100
AcDb2dVertex
 10
4.834285957040239
 20
8.17217878319512
 30
0.0
  0
SEQEND
  5
C3
330
C0
100
AcDbEntity
  8
LAYER_1
  0
POLYLINE
  5
C4
330
40
100
AcDbEntity
  8
LAYER_1
 62
     7
100
AcDb2dPolyline
 66
     1
 10
0.0
 20
0.0
 30
0.0
  0
VERTEX
  5
C5
330
C4
100
AcDbEntity
  8
LAYER_1
 62
     7
100
AcDbVertex
100
AcDb2dVertex
 10
4.027048011517217
 20
8.192225454400898
 30
0.0
  0
VERTEX
  5
C6
330
C4
100
AcDbEntity
  8
LAYER_1
 62
     7
100
AcDbVertex
100
AcDb2dVertex
 10
4.027400659319213
 20
8.17217878319512
 30
0.0
  0
SEQEND
  5
C7
330
C4
100
AcDbEntity
  8
LAYER_1
  0
POLYLINE
  5
C8
330
40
100
AcDbEntity
  8
LAYER_1
 62
     7
100
AcDb2dPolyline
 66
     1
 10
0.0
 20
0.0
 30
0.0
  0
VERTEX
  5
C9
330
C8
100
AcDbEntity
  8
LAYER_1
 62
     7
100
AcDbVertex
100
AcDb2dVertex
 10
4.834285957040239
 20
8.17217878319512
 30
0.0
  0
VERTEX
  5
CA
330
C8
100
AcDbEntity
  8
LAYER_1
 62
     7
100
AcDbVertex
100
AcDb2dVertex
 10
4.076988365630662
 20
8.17217878319512
 30
0.0
  0
SEQEND
  5
CB
330
C8
100
AcDbEntity
  8
LAYER_1
  0
POLYLINE
  5
CC
330
40
100
AcDbEntity
  8
LAYER_1
 62
     7
100
AcDb2dPolyline
 66
     1
 10
0.0
 20
0.0
 30
0.0
  0
VERTEX
  5
CD
330
CC
100
AcDbEntity
  8
LAYER_1
 62
     7
100
AcDbVertex
100
AcDb2dVertex
 10
4.027400659319213
 20
8.17217878319512
 30
0.0
  0
VERTEX
  5
CE
330
CC
100
AcDbEntity
  8
LAYER_1
 62
     7
100
AcDbVertex
100
AcDb2dVertex
 10
4.076988365630662
 20
8.17217878319512
 30
0.0
  0
SEQEND
  5
CF
330
CC
100
AcDbEntity
  8
LAYER_1
  0
POLYLINE
  5
D0
330
40
100
AcDbEntity
  8
LAYER_1
 62
     7
100
AcDb2dPolyline
 66
     1
 10
0.0
 20
0.0
 30
0.0
  0
VERTEX
  5
D1
330
D0
100
AcDbEntity
  8
LAYER_1
 62
     7
100
AcDbVertex
100
AcDb2dVertex
 10
4.054486723187912
 20
7.818323840646055
 30
0.0
  0
VERTEX
  5
D2
330
D0
100
AcDbEntity
  8
LAYER_1
 62
     7
100
AcDbVertex
100
AcDb2dVertex
 10
4.109337019775301
 20
7.818323840646055
 30
0.0
  0
SEQEND
  5
D3
330
D0
100
AcDbEntity
  8
LAYER_1
  0
POLYLINE
  5
D4
330
40
100
AcDbEntity
  8
LAYER_1
 62
     7
100
AcDb2dPolyline
 66
     1
 10
0.0
 20
0.0
 30
0.0
  0
VERTEX
  5
D5
330
D4
100
AcDbEntity
  8
LAYER_1
 62
     7
100
AcDbVertex
100
AcDb2dVertex
 10
4.109337019775301
 20
7.818323840646055
 30
0.0
  0
VERTEX
  5
D6
330
D4
100
AcDbEntity
  8
LAYER_1
 62
     7
100
AcDbVertex
100
AcDb2dVertex
 10
4.111113822162282
 20
7.819035917938548
 30
0.0
  0
VERTEX
  5
D7
330
D4
100
AcDbEntity
  8
LAYER_1
 62
     7
100
AcDbVertex
100
AcDb2dVertex
 10
4.111819117766274
 20
7.820785593571528
 30
0.0
  0
SEQEND
  5
D8
330
D4
100
AcDbEntity
  8
LAYER_1
  0
POLYLINE
  5
D9
330
40
100
AcDbEntity
  8
LAYER_1
 62
     7
100
AcDb2dPolyline
 66
     1
 10
0.0
 20
0.0
 30
0.0
  0
VERTEX
  5
DA
330
D9
100
AcDbEntity
  8
LAYER_1
 62
     7
100
AcDbVertex
100
AcDb2dVertex
 10
4.05200462519694
 20
7.823247346497001
 30
0.0
  0
VERTEX
  5
DB
330
D9
100
AcDbEntity
  8
LAYER_1
 62
     7
100
AcDbVertex
100
AcDb2dVertex
 10
4.05200462519694
 20
7.820785593571528
 30
0.0
  0
VERTEX
  5
DC
330
D9
100
AcDbEntity
  8
LAYER_1
 62
     7
100
AcDbVertex
100
AcDb2dVertex
 10
4.052709920800932
 20
7.819035917938548
 30
0.0
  0
VERTEX
  5
DD
330
D9
100
AcDbEntity
  8
LAYER_1
 62
     7
100
AcDbVertex
100
AcDb2dVertex
 10
4.054486723187912
 20
7.818323840646055
 30
0.0
  0
SEQEND
  5
DE
330
D9
100
AcDbEntity
  8
LAYER_1
  0
POLYLINE
  5
DF
330
40
100
AcDbEntity
  8
LAYER_1
 62
     7
100
AcDb2dPolyline
 66
     1
 10
0.0
 20
0.0
 30
0.0
  0
VERTEX
  5
E0
330
DF
100
AcDbEntity
  8
LAYER_1
 62
     7
100
AcDbVertex
100
AcDb2dVertex
 10
4.111819117766274
 20
7.821843536977516
 30
0.0
  0
VERTEX
  5
E1
330
DF
100
AcDbEntity
  8
LAYER_1
 62
     7
100
AcDbVertex
100
AcDb2dVertex
 10
4.111819117766274
 20
7.820785593571528
 30
0.0
  0
SEQEND
  5
E2
330
DF
100
AcDbEntity
  8
LAYER_1
  0
POLYLINE
  5
E3
330
40
100
AcDbEntity
  8
LAYER_1
 62
     7
100
AcDb2dPolyline
 66
     1
 10
0.0
 20
0.0
 30
0.0
  0
VERTEX
  5
E4
330
E3
100
AcDbEntity
  8
LAYER_1
 62
     7
100
AcDbVertex
100
AcDb2dVertex
 10
4.752336033207151
 20
7.818323840646055
 30
0.0
  0
VERTEX
  5
E5
330
E3
100
AcDbEntity
  8
LAYER_1
 62
     7
100
AcDbVertex
100
AcDb2dVertex
 10
4.807213456548541
 20
7.818323840646055
 30
0.0
  0
SEQEND
  5
E6
330
E3
100
AcDbEntity
  8
LAYER_1
  0
POLYLINE
  5
E7
330
40
100
AcDbEntity
  8
LAYER_1
 62
     7
100
AcDb2dPolyline
 66
     1
 10
0.0
 20
0.0
 30
0.0
  0
VERTEX
  5
E8
330
E7
100
AcDbEntity
  8
LAYER_1
 62
     7
100
AcDbVertex
100
AcDb2dVertex
 10
4.807213456548541
 20
7.818323840646055
 30
0.0
  0
VERTEX
  5
E9
330
E7
100
AcDbEntity
  8
LAYER_1
 62
     7
100
AcDbVertex
100
AcDb2dVertex
 10
4.808963132181521
 20
7.819035917938548
 30
0.0
  0
VERTEX
  5
EA
330
E7
100
AcDbEntity
  8
LAYER_1
 62
     7
100
AcDbVertex
100
AcDb2dVertex
 10
4.809654864408514
 20
7.820785593571528
 30
0.0
  0
SEQEND
  5
EB
330
E7
100
AcDbEntity
  8
LAYER_1
  0
POLYLINE
  5
EC
330
40
100
AcDbEntity
  8
LAYER_1
 62
     7
100
AcDb2dPolyline
 66
     1
 10
0.0
 20
0.0
 30
0.0
  0
VERTEX
  5
ED
330
EC
100
AcDbEntity
  8
LAYER_1
 62
     7
100
AcDbVertex
100
AcDb2dVertex
 10
4.749867498593178
 20
7.823247346497001
 30
0.0
  0
VERTEX
  5
EE
330
EC
100
AcDbEntity
  8
LAYER_1
 62
     7
100
AcDbVertex
100
AcDb2dVertex
 10
4.749867498593178
 20
7.820785593571528
 30
0.0
  0
VERTEX
  5
EF
330
EC
100
AcDbEntity
  8
LAYER_1
 62
     7
100
AcDbVertex
100
AcDb2dVertex
 10
4.750572794197171
 20
7.819035917938548
 30
0.0
  0
VERTEX
  5
F0
330
EC
100
AcDbEntity
  8
LAYER_1
 62
     7
100
AcDbVertex
100
AcDb2dVertex
 10
4.752336033207151
 20
7.818323840646055
 30
0.0
  0
SEQEND
  5
F1
330
EC
100
AcDbEntity
  8
LAYER_1
  0
POLYLINE
  5
F2
330
40
100
AcDbEntity
  8
LAYER_1
 62
     7
100
AcDb2dPolyline
 66
     1
 10
0.0
 20
0.0
 30
0.0
  0
VERTEX
  5
F3
330
F2
100
AcDbEntity
  8
LAYER_1
 62
     7
100
AcDbVertex
100
AcDb2dVertex
 10
4.809654864408514
 20
7.823247346497001
 30
0.0
  0
VERTEX
  5
F4
330
F2
100
AcDbEntity
  8
LAYER_1
 62
     7
100
AcDbVertex
100
AcDb2dVertex
 10
4.809654864408514
 20
7.820785593571528
 30
0.0
  0
SEQEND
  5
F5
330
F2
100
AcDbEntity
  8
LAYER_1
  0
POLYLINE
  5
F6
330
40
100
AcDbEntity
  8
LAYER_1
 62
     7
100
AcDb2dPolyline
 66
     1
 10
0.0
 20
0.0
 30
0.0
  0
VERTEX
  5
F7
330
F6
100
AcDbEntity
  8
LAYER_1
 62
     7
100
AcDbVertex
100
AcDb2dVertex
 10
4.111819117766274
 20
7.823247346497001
 30
0.0
  0
VERTEX
  5
F8
330
F6
100
AcDbEntity
  8
LAYER_1
 62
     7
100
AcDbVertex
100
AcDb2dVertex
 10
4.111819117766274
 20
7.821843536977516
 30
0.0
  0
SEQEND
  5
F9
330
F6
100
AcDbEntity
  8
LAYER_1
  0
SPLINE
  5
FA
330
40
100
AcDbEntity
  8
LAYER_1
 62
     7
100
AcDbSpline
210
0.0
220
0.0
230
1.0
 70
     8
 71
     3
 72
    26
 73
    22
 74
     0
 42
0.0000000001
 43
0.0000000001
 40
0.0
 40
0.0
 40
0.0
 40
0.0
 40
1.0
 40
1.0
 40
1.0
 40
2.0
 40
2.0
 40
2.0
 40
3.0
 40
3.0
 40
3.0
 40
4.0
 40
4.0
 40
4.0
 40
5.0
 40
5.0
 40
5.0
 40
6.0
 40
6.0
 40
6.0
 40
7.0
 40
7.0
 40
7.0
 40
7.0
 10
4.09597709343045
 20
7.823247346497001
 30
0.0
 10
4.09597709343045
 20
7.823247346497001
 30
0.0
 10
4.105118809528348
 20
8.12362189353566
 30
0.0
 10
4.105118809528348
 20
8.12362189353566
 30
0.0
 10
4.105118809528348
 20
8.12362189353566
 30
0.0
 10
4.105118809528348
 20
8.125751343724637
 30
0.0
 10
4.105118809528348
 20
8.125751343724637
 30
0.0
 10
4.105118809528348
 20
8.125751343724637
 30
0.0
 10
4.105471457330345
 20
8.126802505442125
 30
0.0
 10
4.105471457330345
 20
8.126802505442125
 30
0.0
 10
4.105471457330345
 20
8.126802505442125
 30
0.0
 10
4.105471457330345
 20
8.127853667159613
 30
0.0
 10
4.105471457330345
 20
8.127853667159613
 30
0.0
 10
4.105471457330345
 20
8.127853667159613
 30
0.0
 10
4.105824105132341
 20
8.128911610565602
 30
0.0
 10
4.105824105132341
 20
8.128911610565602
 30
0.0
 10
4.107872175059318
 20
8.131624285965572
 30
0.0
 10
4.106176752934337
 20
8.131305546606075
 30
0.0
 10
4.109337019775301
 20
8.134187764218543
 30
0.0
 10
4.113121201958259
 20
8.138426319530996
 30
0.0
 10
4.115996637882228
 20
8.13901632643049
 30
0.0
 10
4.121313481666169
 20
8.139816565673481
 30
0.0
  0
SPLINE
  5
FB
330
40
100
AcDbEntity
  8
LAYER_1
 62
     7
100
AcDbSpline
210
0.0
220
0.0
230
1.0
 70
     8
 71
     3
 72
    32
 73
    28
 74
     0
 42
0.0000000001
 43
0.0000000001
 40
0.0
 40
0.0
 40
0.0
 40
0.0
 40
1.0
 40
1.0
 40
1.0
 40
2.0
 40
2.0
 40
2.0
 40
3.0
 40
3.0
 40
3.0
 40
4.0
 40
4.0
 40
4.0
 40
5.0
 40
5.0
 40
5.0
 40
6.0
 40
6.0
 40
6.0
 40
7.0
 40
7.0
 40
7.0
 40
8.0
 40
8.0
 40
8.0
 40
9.0
 40
9.0
 40
9.0
 40
9.0
 10
4.121313481666169
 20
8.139816565673481
 30
0.0
 10
4.121313481666169
 20
8.139816565673481
 30
0.0
 10
4.740373134693284
 20
8.139816565673481
 30
0.0
 10
4.740373134693284
 20
8.139816565673481
 30
0.0
 10
4.740373134693284
 20
8.139816565673481
 30
0.0
 10
4.741431078099272
 20
8.139463917871485
 30
0.0
 10
4.741431078099272
 20
8.139463917871485
 30
0.0
 10
4.741431078099272
 20
8.139463917871485
 30
0.0
 10
4.743533401534249
 20
8.139463917871485
 30
0.0
 10
4.743533401534249
 20
8.139463917871485
 30
0.0
 10
4.743533401534249
 20
8.139463917871485
 30
0.0
 10
4.745649288346225
 20
8.138765403955992
 30
0.0
 10
4.745649288346225
 20
8.138765403955992
 30
0.0
 10
4.747426090733206
 20
8.138439882907996
 30
0.0
 10
4.750735554721169
 20
8.136208707391521
 30
0.0
 10
4.751983385405155
 20
8.134906623199536
 30
0.0
 10
4.753773751169136
 20
8.133319708090553
 30
0.0
 10
4.75427559611813
 20
8.132031187275567
 30
0.0
 10
4.755482736671116
 20
8.12996277228309
 30
0.0
 10
4.755482736671116
 20
8.12996277228309
 30
0.0
 10
4.756893327879101
 20
8.125751343724637
 30
0.0
 10
4.756893327879101
 20
8.125751343724637
 30
0.0
 10
4.756893327879101
 20
8.125751343724637
 30
0.0
 10
4.756893327879101
 20
8.12362189353566
 30
0.0
 10
4.756893327879101
 20
8.12362189353566
 30
0.0
 10
4.756893327879101
 20
8.12362189353566
 30
0.0
 10
4.766007917222999
 20
7.823247346497001
 30
0.0
 10
4.766007917222999
 20
7.823247346497001
 30
0.0
  0
POLYLINE
  5
FC
330
40
100
AcDbEntity
  8
LAYER_1
 62
     7
100
AcDb2dPolyline
 66
     1
 10
0.0
 20
0.0
 30
0.0
  0
VERTEX
  5
FD
330
FC
100
AcDbEntity
  8
LAYER_1
 62
     7
100
AcDbVertex
100
AcDb2dVertex
 10
4.032663249595155
 20
7.833094358198891
 30
0.0
  0
VERTEX
  5
FE
330
FC
100
AcDbEntity
  8
LAYER_1
 62
     7
100
AcDbVertex
100
AcDb2dVertex
 10
4.027048011517217
 20
8.152125330300844
 30
0.0
  0
VERTEX
  5
FF
330
FC
100
AcDbEntity
  8
LAYER_1
 62
     7
100
AcDbVertex
100
AcDb2dVertex
 10
4.027400659319213
 20
8.17217878319512
 30
0.0
  0
SEQEND
  5
100
330
FC
100
AcDbEntity
  8
LAYER_1
  0
POLYLINE
  5
101
330
40
100
AcDbEntity
  8
LAYER_1
 62
     7
100
AcDb2dPolyline
 66
     1
 10
0.0
 20
0.0
 30
0.0
  0
VERTEX
  5
102
330
101
100
AcDbEntity
  8
LAYER_1
 62
     7
100
AcDbVertex
100
AcDb2dVertex
 10
4.032663249595155
 20
7.833094358198891
 30
0.0
  0
VERTEX
  5
103
330
101
100
AcDbEntity
  8
LAYER_1
 62
     7
100
AcDbVertex
100
AcDb2dVertex
 10
4.033721193001143
 20
7.829222014065435
 30
0.0
  0
VERTEX
  5
104
330
101
100
AcDbEntity
  8
LAYER_1
 62
     7
100
AcDbVertex
100
AcDb2dVertex
 10
4.035837079813119
 20
7.82606852891297
 30
0.0
  0
VERTEX
  5
105
330
101
100
AcDbEntity
  8
LAYER_1
 62
     7
100
AcDbVertex
100
AcDb2dVertex
 10
4.038997346654084
 20
7.823945860412493
 30
0.0
  0
VERTEX
  5
106
330
101
100
AcDbEntity
  8
LAYER_1
 62
     7
100
AcDbVertex
100
AcDb2dVertex
 10
4.042862909099041
 20
7.823247346497001
 30
0.0
  0
SEQEND
  5
107
330
101
100
AcDbEntity
  8
LAYER_1
  0
POLYLINE
  5
108
330
40
100
AcDbEntity
  8
LAYER_1
 62
     7
100
AcDb2dPolyline
 66
     1
 10
0.0
 20
0.0
 30
0.0
  0
VERTEX
  5
109
330
108
100
AcDbEntity
  8
LAYER_1
 62
     7
100
AcDbVertex
100
AcDb2dVertex
 10
4.819162791685408
 20
7.823247346497001
 30
0.0
  0
VERTEX
  5
10A
330
108
100
AcDbEntity
  8
LAYER_1
 62
     7
100
AcDbVertex
100
AcDb2dVertex
 10
4.823028354130365
 20
7.823945860412493
 30
0.0
  0
VERTEX
  5
10B
330
108
100
AcDbEntity
  8
LAYER_1
 62
     7
100
AcDbVertex
100
AcDb2dVertex
 10
4.82620218434833
 20
7.82606852891297
 30
0.0
  0
VERTEX
  5
10C
330
108
100
AcDbEntity
  8
LAYER_1
 62
     7
100
AcDbVertex
100
AcDb2dVertex
 10
4.828290944406307
 20
7.829222014065435
 30
0.0
  0
VERTEX
  5
10D
330
108
100
AcDbEntity
  8
LAYER_1
 62
     7
100
AcDbVertex
100
AcDb2dVertex
 10
4.828996240010299
 20
7.833094358198891
 30
0.0
  0
SEQEND
  5
10E
330
108
100
AcDbEntity
  8
LAYER_1
  0
POLYLINE
  5
10F
330
40
100
AcDbEntity
  8
LAYER_1
 62
     7
100
AcDb2dPolyline
 66
     1
 10
0.0
 20
0.0
 30
0.0
  0
VERTEX
  5
110
330
10F
100
AcDbEntity
  8
LAYER_1
 62
     7
100
AcDbVertex
100
AcDb2dVertex
 10
4.834285957040239
 20
8.17217878319512
 30
0.0
  0
VERTEX
  5
111
330
10F
100
AcDbEntity
  8
LAYER_1
 62
     7
100
AcDbVertex
100
AcDb2dVertex
 10
4.834638604842236
 20
8.152125330300844
 30
0.0
  0
VERTEX
  5
112
330
10F
100
AcDbEntity
  8
LAYER_1
 62
     7
100
AcDbVertex
100
AcDb2dVertex
 10
4.828996240010299
 20
7.833094358198891
 30
0.0
  0
SEQEND
  5
113
330
10F
100
AcDbEntity
  8
LAYER_1
  0
POLYLINE
  5
114
330
40
100
AcDbEntity
  8
LAYER_1
 62
     7
100
AcDb2dPolyline
 66
     1
 10
0.0
 20
0.0
 30
0.0
  0
VERTEX
  5
115
330
114
100
AcDbEntity
  8
LAYER_1
 62
     7
100
AcDbVertex
100
AcDb2dVertex
 10
4.027400659319213
 20
8.17217878319512
 30
0.0
  0
VERTEX
  5
116
330
114
100
AcDbEntity
  8
LAYER_1
 62
     7
100
AcDbVertex
100
AcDb2dVertex
 10
4.785050898530788
 20
8.17217878319512
 30
0.0
  0
SEQEND
  5
117
330
114
100
AcDbEntity
  8
LAYER_1
  0
POLYLINE
  5
118
330
40
100
AcDbEntity
  8
LAYER_1
 62
     7
100
AcDb2dPolyline
 66
     1
 10
0.0
 20
0.0
 30
0.0
  0
VERTEX
  5
119
330
118
100
AcDbEntity
  8
LAYER_1
 62
     7
100
AcDbVertex
100
AcDb2dVertex
 10
4.834285957040239
 20
8.17217878319512
 30
0.0
  0
VERTEX
  5
11A
330
118
100
AcDbEntity
  8
LAYER_1
 62
     7
100
AcDbVertex
100
AcDb2dVertex
 10
4.785050898530788
 20
8.17217878319512
 30
0.0
  0
SEQEND
  5
11B
330
118
100
AcDbEntity
  8
LAYER_1
  0
POLYLINE
  5
11C
330
40
100
AcDbEntity
  8
LAYER_1
 62
     7
100
AcDb2dPolyline
 66
     1
 10
0.0
 20
0.0
 30
0.0
  0
VERTEX
  5
11D
330
11C
100
AcDbEntity
  8
LAYER_1
 62
     7
100
AcDbVertex
100
AcDb2dVertex
 10
4.819162791685408
 20
7.823247346497001
 30
0.0
  0
VERTEX
  5
11E
330
11C
100
AcDbEntity
  8
LAYER_1
 62
     7
100
AcDbVertex
100
AcDb2dVertex
 10
4.042862909099041
 20
7.823247346497001
 30
0.0
  0
SEQEND
  5
11F
330
11C
100
AcDbEntity
  8
LAYER_1
  0
SPLINE
  5
120
330
40
100
AcDbEntity
  8
LAYER_1
 62
     7
100
AcDbSpline
210
0.0
220
0.0
230
1.0
 70
     8
 71
     3
 72
    23
 73
    19
 74
     0
 42
0.0000000001
 43
0.0000000001
 40
0.0
 40
0.0
 40
0.0
 40
0.0
 40
1.0
 40
1.0
 40
1.0
 40
2.0
 40
2.0
 40
2.0
 40
3.0
 40
3.0
 40
3.0
 40
4.0
 40
4.0
 40
4.0
 40
5.0
 40
5.0
 40
5.0
 40
6.0
 40
6.0
 40
6.0
 40
6.0
 10
6.084612302394335
 20
6.811182063210755
 30
0.0
 10
6.084680119279334
 20
6.803857839630837
 30
0.0
 10
6.082849063384355
 20
6.793861630781948
 30
0.0
 10
6.080380528770383
 20
6.786917181758025
 30
0.0
 10
6.079946500706387
 20
6.785425210288042
 30
0.0
 10
6.079905810575388
 20
6.784075654276557
 30
0.0
 10
6.078644416514402
 20
6.783044837624568
 30
0.0
 10
6.078644416514402
 20
6.783044837624568
 30
0.0
 10
6.078644416514402
 20
6.782692189822573
 30
0.0
 10
6.078644416514402
 20
6.782692189822573
 30
0.0
 10
6.078644416514402
 20
6.782692189822573
 30
0.0
 10
6.077233825306418
 20
6.781288380303088
 30
0.0
 10
6.077233825306418
 20
6.781288380303088
 30
0.0
 10
6.077233825306418
 20
6.781288380303088
 30
0.0
 10
6.075823234098433
 20
6.780942514189592
 30
0.0
 10
6.075823234098433
 20
6.780942514189592
 30
0.0
 10
6.075823234098433
 20
6.780942514189592
 30
0.0
 10
6.074765290692445
 20
6.780596648076096
 30
0.0
 10
6.074765290692445
 20
6.780596648076096
 30
0.0
  0
POLYLINE
  5
121
330
40
100
AcDbEntity
  8
LAYER_1
 62
     7
100
AcDb2dPolyline
 66
     1
 10
0.0
 20
0.0
 30
0.0
  0
VERTEX
  5
122
330
121
100
AcDbEntity
  8
LAYER_1
 62
     7
100
AcDbVertex
100
AcDb2dVertex
 10
6.05998120976261
 20
6.779884570783604
 30
0.0
  0
VERTEX
  5
123
330
121
100
AcDbEntity
  8
LAYER_1
 62
     7
100
AcDbVertex
100
AcDb2dVertex
 10
6.009688207847169
 20
6.778121331773623
 30
0.0
  0
SEQEND
  5
124
330
121
100
AcDbEntity
  8
LAYER_1
  0
POLYLINE
  5
125
330
40
100
AcDbEntity
  8
LAYER_1
 62
     7
100
AcDb2dPolyline
 66
     1
 10
0.0
 20
0.0
 30
0.0
  0
VERTEX
  5
126
330
125
100
AcDbEntity
  8
LAYER_1
 62
     7
100
AcDbVertex
100
AcDb2dVertex
 10
6.009688207847169
 20
6.843890146845892
 30
0.0
  0
VERTEX
  5
127
330
125
100
AcDbEntity
  8
LAYER_1
 62
     7
100
AcDbVertex
100
AcDb2dVertex
 10
6.05998120976261
 20
6.842140471212911
 30
0.0
  0
VERTEX
  5
128
330
125
100
AcDbEntity
  8
LAYER_1
 62
     7
100
AcDbVertex
100
AcDb2dVertex
 10
6.074765290692445
 20
6.841794605099415
 30
0.0
  0
SEQEND
  5
129
330
125
100
AcDbEntity
  8
LAYER_1
  0
POLYLINE
  5
12A
330
40
100
AcDbEntity
  8
LAYER_1
 62
     7
100
AcDb2dPolyline
 66
     1
 10
0.0
 20
0.0
 30
0.0
  0
VERTEX
  5
12B
330
12A
100
AcDbEntity
  8
LAYER_1
 62
     7
100
AcDbVertex
100
AcDb2dVertex
 10
6.05364711270368
 20
6.806617986850307
 30
0.0
  0
VERTEX
  5
12C
330
12A
100
AcDbEntity
  8
LAYER_1
 62
     7
100
AcDbVertex
100
AcDb2dVertex
 10
6.05364711270368
 20
6.815407055146209
 30
0.0
  0
SEQEND
  5
12D
330
12A
100
AcDbEntity
  8
LAYER_1
  0
SPLINE
  5
12E
330
40
100
AcDbEntity
  8
LAYER_1
 62
     7
100
AcDbSpline
210
0.0
220
0.0
230
1.0
 70
     8
 71
     3
 72
     8
 73
     4
 74
     0
 42
0.0000000001
 43
0.0000000001
 40
0.0
 40
0.0
 40
0.0
 40
0.0
 40
1.0
 40
1.0
 40
1.0
 40
1.0
 10
6.009688207847169
 20
6.81082941540876
 30
0.0
 10
6.023414345371016
 20
6.80895088769428
 30
0.0
 10
6.03746600394286
 20
6.806102578524312
 30
0.0
 10
6.051205704843707
 20
6.804149452236333
 30
0.0
  0
POLYLINE
  5
12F
330
40
100
AcDbEntity
  8
LAYER_1
 62
     7
100
AcDb2dPolyline
 66
     1
 10
0.0
 20
0.0
 30
0.0
  0
VERTEX
  5
130
330
12F
100
AcDbEntity
  8
LAYER_1
 62
     7
100
AcDbVertex
100
AcDb2dVertex
 10
6.05364711270368
 20
6.806617986850307
 30
0.0
  0
VERTEX
  5
131
330
12F
100
AcDbEntity
  8
LAYER_1
 62
     7
100
AcDbVertex
100
AcDb2dVertex
 10
6.05364711270368
 20
6.805560043444318
 30
0.0
  0
VERTEX
  5
132
330
12F
100
AcDbEntity
  8
LAYER_1
 62
     7
100
AcDbVertex
100
AcDb2dVertex
 10
6.053321591655683
 20
6.805207395642322
 30
0.0
  0
VERTEX
  5
133
330
12F
100
AcDbEntity
  8
LAYER_1
 62
     7
100
AcDbVertex
100
AcDb2dVertex
 10
6.053321591655683
 20
6.804868311217326
 30
0.0
  0
VERTEX
  5
134
330
12F
100
AcDbEntity
  8
LAYER_1
 62
     7
100
AcDbVertex
100
AcDb2dVertex
 10
6.052955380476687
 20
6.804868311217326
 30
0.0
  0
VERTEX
  5
135
330
12F
100
AcDbEntity
  8
LAYER_1
 62
     7
100
AcDbVertex
100
AcDb2dVertex
 10
6.052955380476687
 20
6.80450210003833
 30
0.0
  0
VERTEX
  5
136
330
12F
100
AcDbEntity
  8
LAYER_1
 62
     7
100
AcDbVertex
100
AcDb2dVertex
 10
6.052602732674692
 20
6.80450210003833
 30
0.0
  0
VERTEX
  5
137
330
12F
100
AcDbEntity
  8
LAYER_1
 62
     7
100
AcDbVertex
100
AcDb2dVertex
 10
6.052602732674692
 20
6.804149452236333
 30
0.0
  0
VERTEX
  5
138
330
12F
100
AcDbEntity
  8
LAYER_1
 62
     7
100
AcDbVertex
100
AcDb2dVertex
 10
6.051205704843707
 20
6.804149452236333
 30
0.0
  0
SEQEND
  5
139
330
12F
100
AcDbEntity
  8
LAYER_1
  0
POLYLINE
  5
13A
330
40
100
AcDbEntity
  8
LAYER_1
 62
     7
100
AcDb2dPolyline
 66
     1
 10
0.0
 20
0.0
 30
0.0
  0
VERTEX
  5
13B
330
13A
100
AcDbEntity
  8
LAYER_1
 62
     7
100
AcDbVertex
100
AcDb2dVertex
 10
6.009688207847169
 20
6.811182063210755
 30
0.0
  0
VERTEX
  5
13C
330
13A
100
AcDbEntity
  8
LAYER_1
 62
     7
100
AcDbVertex
100
AcDb2dVertex
 10
6.051205704843707
 20
6.818214674185177
 30
0.0
  0
VERTEX
  5
13D
330
13A
100
AcDbEntity
  8
LAYER_1
 62
     7
100
AcDbVertex
100
AcDb2dVertex
 10
6.052250084872695
 20
6.818214674185177
 30
0.0
  0
VERTEX
  5
13E
330
13A
100
AcDbEntity
  8
LAYER_1
 62
     7
100
AcDbVertex
100
AcDb2dVertex
 10
6.052250084872695
 20
6.817868808071681
 30
0.0
  0
VERTEX
  5
13F
330
13A
100
AcDbEntity
  8
LAYER_1
 62
     7
100
AcDbVertex
100
AcDb2dVertex
 10
6.052955380476687
 20
6.817868808071681
 30
0.0
  0
VERTEX
  5
140
330
13A
100
AcDbEntity
  8
LAYER_1
 62
     7
100
AcDbVertex
100
AcDb2dVertex
 10
6.052955380476687
 20
6.817516160269685
 30
0.0
  0
VERTEX
  5
141
330
13A
100
AcDbEntity
  8
LAYER_1
 62
     7
100
AcDbVertex
100
AcDb2dVertex
 10
6.053321591655683
 20
6.817516160269685
 30
0.0
  0
VERTEX
  5
142
330
13A
100
AcDbEntity
  8
LAYER_1
 62
     7
100
AcDbVertex
100
AcDb2dVertex
 10
6.053321591655683
 20
6.816817646354193
 30
0.0
  0
VERTEX
  5
143
330
13A
100
AcDbEntity
  8
LAYER_1
 62
     7
100
AcDbVertex
100
AcDb2dVertex
 10
6.05364711270368
 20
6.816817646354193
 30
0.0
  0
VERTEX
  5
144
330
13A
100
AcDbEntity
  8
LAYER_1
 62
     7
100
AcDbVertex
100
AcDb2dVertex
 10
6.05364711270368
 20
6.815407055146209
 30
0.0
  0
SEQEND
  5
145
330
13A
100
AcDbEntity
  8
LAYER_1
  0
POLYLINE
  5
146
330
40
100
AcDbEntity
  8
LAYER_1
 62
     7
100
AcDb2dPolyline
 66
     1
 10
0.0
 20
0.0
 30
0.0
  0
VERTEX
  5
147
330
146
100
AcDbEntity
  8
LAYER_1
 62
     7
100
AcDbVertex
100
AcDb2dVertex
 10
6.074765290692445
 20
6.780596648076096
 30
0.0
  0
VERTEX
  5
148
330
146
100
AcDbEntity
  8
LAYER_1
 62
     7
100
AcDbVertex
100
AcDb2dVertex
 10
6.05998120976261
 20
6.779884570783604
 30
0.0
  0
SEQEND
  5
149
330
146
100
AcDbEntity
  8
LAYER_1
  0
POLYLINE
  5
14A
330
40
100
AcDbEntity
  8
LAYER_1
 62
     7
100
AcDb2dPolyline
 66
     1
 10
0.0
 20
0.0
 30
0.0
  0
VERTEX
  5
14B
330
14A
100
AcDbEntity
  8
LAYER_1
 62
     7
100
AcDbVertex
100
AcDb2dVertex
 10
6.074765290692445
 20
6.780596648076096
 30
0.0
  0
VERTEX
  5
14C
330
14A
100
AcDbEntity
  8
LAYER_1
 62
     7
100
AcDbVertex
100
AcDb2dVertex
 10
6.075457022919437
 20
6.780596648076096
 30
0.0
  0
VERTEX
  5
14D
330
14A
100
AcDbEntity
  8
LAYER_1
 62
     7
100
AcDbVertex
100
AcDb2dVertex
 10
6.076501402948426
 20
6.780942514189592
 30
0.0
  0
VERTEX
  5
14E
330
14A
100
AcDbEntity
  8
LAYER_1
 62
     7
100
AcDbVertex
100
AcDb2dVertex
 10
6.077233825306418
 20
6.781288380303088
 30
0.0
  0
VERTEX
  5
14F
330
14A
100
AcDbEntity
  8
LAYER_1
 62
     7
100
AcDbVertex
100
AcDb2dVertex
 10
6.078644416514402
 20
6.782692189822573
 30
0.0
  0
VERTEX
  5
150
330
14A
100
AcDbEntity
  8
LAYER_1
 62
     7
100
AcDbVertex
100
AcDb2dVertex
 10
6.078997064316398
 20
6.783750133228561
 30
0.0
  0
SEQEND
  5
151
330
14A
100
AcDbEntity
  8
LAYER_1
  0
POLYLINE
  5
152
330
40
100
AcDbEntity
  8
LAYER_1
 62
     7
100
AcDb2dPolyline
 66
     1
 10
0.0
 20
0.0
 30
0.0
  0
VERTEX
  5
153
330
152
100
AcDbEntity
  8
LAYER_1
 62
     7
100
AcDbVertex
100
AcDb2dVertex
 10
5.896786657700424
 20
6.955754098652148
 30
0.0
  0
VERTEX
  5
154
330
152
100
AcDbEntity
  8
LAYER_1
 62
     7
100
AcDbVertex
100
AcDb2dVertex
 10
5.896081362096432
 20
6.955754098652148
 30
0.0
  0
SEQEND
  5
155
330
152
100
AcDbEntity
  8
LAYER_1
  0
POLYLINE
  5
156
330
40
100
AcDbEntity
  8
LAYER_1
 62
     7
100
AcDb2dPolyline
 66
     1
 10
0.0
 20
0.0
 30
0.0
  0
VERTEX
  5
157
330
156
100
AcDbEntity
  8
LAYER_1
 62
     7
100
AcDbVertex
100
AcDb2dVertex
 10
5.896786657700424
 20
6.666616809457863
 30
0.0
  0
VERTEX
  5
158
330
156
100
AcDbEntity
  8
LAYER_1
 62
     7
100
AcDbVertex
100
AcDb2dVertex
 10
5.896081362096432
 20
6.666616809457863
 30
0.0
  0
SEQEND
  5
159
330
156
100
AcDbEntity
  8
LAYER_1
  0
POLYLINE
  5
15A
330
40
100
AcDbEntity
  8
LAYER_1
 62
     7
100
AcDb2dPolyline
 66
     1
 10
0.0
 20
0.0
 30
0.0
  0
VERTEX
  5
15B
330
15A
100
AcDbEntity
  8
LAYER_1
 62
     7
100
AcDbVertex
100
AcDb2dVertex
 10
5.896081362096432
 20
6.955754098652148
 30
0.0
  0
VERTEX
  5
15C
330
15A
100
AcDbEntity
  8
LAYER_1
 62
     7
100
AcDbVertex
100
AcDb2dVertex
 10
5.894684334265448
 20
6.955042021359656
 30
0.0
  0
VERTEX
  5
15D
330
15A
100
AcDbEntity
  8
LAYER_1
 62
     7
100
AcDbVertex
100
AcDb2dVertex
 10
5.894318123086451
 20
6.953644993528671
 30
0.0
  0
SEQEND
  5
15E
330
15A
100
AcDbEntity
  8
LAYER_1
  0
POLYLINE
  5
15F
330
40
100
AcDbEntity
  8
LAYER_1
 62
     7
100
AcDb2dPolyline
 66
     1
 10
0.0
 20
0.0
 30
0.0
  0
VERTEX
  5
160
330
15F
100
AcDbEntity
  8
LAYER_1
 62
     7
100
AcDbVertex
100
AcDb2dVertex
 10
5.894318123086451
 20
6.953644993528671
 30
0.0
  0
VERTEX
  5
161
330
15F
100
AcDbEntity
  8
LAYER_1
 62
     7
100
AcDbVertex
100
AcDb2dVertex
 10
5.894318123086451
 20
6.668373266779343
 30
0.0
  0
VERTEX
  5
162
330
15F
100
AcDbEntity
  8
LAYER_1
 62
     7
100
AcDbVertex
100
AcDb2dVertex
 10
5.894684334265448
 20
6.666976238948359
 30
0.0
  0
VERTEX
  5
163
330
15F
100
AcDbEntity
  8
LAYER_1
 62
     7
100
AcDbVertex
100
AcDb2dVertex
 10
5.896081362096432
 20
6.666616809457863
 30
0.0
  0
SEQEND
  5
164
330
15F
100
AcDbEntity
  8
LAYER_1
  0
POLYLINE
  5
165
330
40
100
AcDbEntity
  8
LAYER_1
 62
     7
100
AcDb2dPolyline
 66
     1
 10
0.0
 20
0.0
 30
0.0
  0
VERTEX
  5
166
330
165
100
AcDbEntity
  8
LAYER_1
 62
     7
100
AcDbVertex
100
AcDb2dVertex
 10
5.999827632768278
 20
6.624414361922833
 30
0.0
  0
VERTEX
  5
167
330
165
100
AcDbEntity
  8
LAYER_1
 62
     7
100
AcDbVertex
100
AcDb2dVertex
 10
6.001251787353262
 20
6.625112875838325
 30
0.0
  0
VERTEX
  5
168
330
165
100
AcDbEntity
  8
LAYER_1
 62
     7
100
AcDbVertex
100
AcDb2dVertex
 10
6.001943519580255
 20
6.626530248734809
 30
0.0
  0
SEQEND
  5
169
330
165
100
AcDbEntity
  8
LAYER_1
  0
POLYLINE
  5
16A
330
40
100
AcDbEntity
  8
LAYER_1
 62
     7
100
AcDb2dPolyline
 66
     1
 10
0.0
 20
0.0
 30
0.0
  0
VERTEX
  5
16B
330
16A
100
AcDbEntity
  8
LAYER_1
 62
     7
100
AcDbVertex
100
AcDb2dVertex
 10
6.001943519580255
 20
6.995847441063702
 30
0.0
  0
VERTEX
  5
16C
330
16A
100
AcDbEntity
  8
LAYER_1
 62
     7
100
AcDbVertex
100
AcDb2dVertex
 10
6.001251787353262
 20
6.997264813960186
 30
0.0
  0
VERTEX
  5
16D
330
16A
100
AcDbEntity
  8
LAYER_1
 62
     7
100
AcDbVertex
100
AcDb2dVertex
 10
5.999827632768278
 20
6.997610680073683
 30
0.0
  0
SEQEND
  5
16E
330
16A
100
AcDbEntity
  8
LAYER_1
  0
SPLINE
  5
16F
330
40
100
AcDbEntity
  8
LAYER_1
 62
     7
100
AcDbSpline
210
0.0
220
0.0
230
1.0
 70
    11
 71
     3
 72
    11
 73
     7
 74
     0
 42
0.0000000001
 43
0.0000000001
 40
0.0
 40
0.0
 40
0.0
 40
0.0
 40
1.0
 40
1.0
 40
1.0
 40
2.0
 40
2.0
 40
2.0
 40
2.0
 10
5.972768695653579
 20
6.862539790220684
 30
0.0
 10
5.997426915039305
 20
6.864459008066163
 30
0.0
 10
5.998213590905296
 20
6.898313197057787
 30
0.0
 10
5.973473991257571
 20
6.900883456999258
 30
0.0
 10
5.947269546893863
 20
6.90072069647526
 30
0.0
 10
5.946374364011873
 20
6.86388256454367
 30
0.0
 10
5.972768695653579
 20
6.862539790220684
 30
0.0
  0
POLYLINE
  5
170
330
40
100
AcDbEntity
  8
LAYER_1
 62
     7
100
AcDb2dPolyline
 66
     1
 10
0.0
 20
0.0
 30
0.0
  0
VERTEX
  5
171
330
170
100
AcDbEntity
  8
LAYER_1
 62
     7
100
AcDbVertex
100
AcDb2dVertex
 10
5.999827632768278
 20
6.997610680073683
 30
0.0
  0
VERTEX
  5
172
330
170
100
AcDbEntity
  8
LAYER_1
 62
     7
100
AcDbVertex
100
AcDb2dVertex
 10
5.94850381420085
 20
7.003937995444112
 30
0.0
  0
VERTEX
  5
173
330
170
100
AcDbEntity
  8
LAYER_1
 62
     7
100
AcDbVertex
100
AcDb2dVertex
 10
5.896786657700424
 20
7.008515635181561
 30
0.0
  0
SEQEND
  5
174
330
170
100
AcDbEntity
  8
LAYER_1
  0
POLYLINE
  5
175
330
40
100
AcDbEntity
  8
LAYER_1
 62
     7
100
AcDb2dPolyline
 66
     1
 10
0.0
 20
0.0
 30
0.0
  0
VERTEX
  5
176
330
175
100
AcDbEntity
  8
LAYER_1
 62
     7
100
AcDbVertex
100
AcDb2dVertex
 10
5.896786657700424
 20
6.61385527292845
 30
0.0
  0
VERTEX
  5
177
330
175
100
AcDbEntity
  8
LAYER_1
 62
     7
100
AcDbVertex
100
AcDb2dVertex
 10
5.94850381420085
 20
6.618093828240903
 30
0.0
  0
VERTEX
  5
178
330
175
100
AcDbEntity
  8
LAYER_1
 62
     7
100
AcDbVertex
100
AcDb2dVertex
 10
5.999827632768278
 20
6.624414361922833
 30
0.0
  0
SEQEND
  5
179
330
175
100
AcDbEntity
  8
LAYER_1
  0
POLYLINE
  5
17A
330
40
100
AcDbEntity
  8
LAYER_1
 62
     7
100
AcDb2dPolyline
 66
     1
 10
0.0
 20
0.0
 30
0.0
  0
VERTEX
  5
17B
330
17A
100
AcDbEntity
  8
LAYER_1
 62
     7
100
AcDbVertex
100
AcDb2dVertex
 10
6.001943519580255
 20
6.626530248734809
 30
0.0
  0
VERTEX
  5
17C
330
17A
100
AcDbEntity
  8
LAYER_1
 62
     7
100
AcDbVertex
100
AcDb2dVertex
 10
6.006514377629204
 20
6.646922786054082
 30
0.0
  0
SEQEND
  5
17D
330
17A
100
AcDbEntity
  8
LAYER_1
  0
POLYLINE
  5
17E
330
40
100
AcDbEntity
  8
LAYER_1
 62
     7
100
AcDb2dPolyline
 66
     1
 10
0.0
 20
0.0
 30
0.0
  0
VERTEX
  5
17F
330
17E
100
AcDbEntity
  8
LAYER_1
 62
     7
100
AcDbVertex
100
AcDb2dVertex
 10
6.009688207847169
 20
6.958561717691117
 30
0.0
  0
VERTEX
  5
180
330
17E
100
AcDbEntity
  8
LAYER_1
 62
     7
100
AcDbVertex
100
AcDb2dVertex
 10
6.008277616639185
 20
6.965607892042538
 30
0.0
  0
SEQEND
  5
181
330
17E
100
AcDbEntity
  8
LAYER_1
  0
POLYLINE
  5
182
330
40
100
AcDbEntity
  8
LAYER_1
 62
     7
100
AcDb2dPolyline
 66
     1
 10
0.0
 20
0.0
 30
0.0
  0
VERTEX
  5
183
330
182
100
AcDbEntity
  8
LAYER_1
 62
     7
100
AcDbVertex
100
AcDb2dVertex
 10
6.003015026363243
 20
6.990578069099261
 30
0.0
  0
VERTEX
  5
184
330
182
100
AcDbEntity
  8
LAYER_1
 62
     7
100
AcDbVertex
100
AcDb2dVertex
 10
6.001943519580255
 20
6.995847441063702
 30
0.0
  0
SEQEND
  5
185
330
182
100
AcDbEntity
  8
LAYER_1
  0
POLYLINE
  5
186
330
40
100
AcDbEntity
  8
LAYER_1
 62
     7
100
AcDb2dPolyline
 66
     1
 10
0.0
 20
0.0
 30
0.0
  0
VERTEX
  5
187
330
186
100
AcDbEntity
  8
LAYER_1
 62
     7
100
AcDbVertex
100
AcDb2dVertex
 10
5.896786657700424
 20
7.008515635181561
 30
0.0
  0
VERTEX
  5
188
330
186
100
AcDbEntity
  8
LAYER_1
 62
     7
100
AcDbVertex
100
AcDb2dVertex
 10
5.896786657700424
 20
6.61385527292845
 30
0.0
  0
SEQEND
  5
189
330
186
100
AcDbEntity
  8
LAYER_1
  0
POLYLINE
  5
18A
330
40
100
AcDbEntity
  8
LAYER_1
 62
     7
100
AcDb2dPolyline
 66
     1
 10
0.0
 20
0.0
 30
0.0
  0
VERTEX
  5
18B
330
18A
100
AcDbEntity
  8
LAYER_1
 62
     7
100
AcDbVertex
100
AcDb2dVertex
 10
6.006514377629204
 20
6.646922786054082
 30
0.0
  0
VERTEX
  5
18C
330
18A
100
AcDbEntity
  8
LAYER_1
 62
     7
100
AcDbVertex
100
AcDb2dVertex
 10
6.006514377629204
 20
6.666270943344367
 30
0.0
  0
VERTEX
  5
18D
330
18A
100
AcDbEntity
  8
LAYER_1
 62
     7
100
AcDbVertex
100
AcDb2dVertex
 10
6.0068805888082
 20
6.666616809457863
 30
0.0
  0
VERTEX
  5
18E
330
18A
100
AcDbEntity
  8
LAYER_1
 62
     7
100
AcDbVertex
100
AcDb2dVertex
 10
6.0068805888082
 20
6.667322105061856
 30
0.0
  0
VERTEX
  5
18F
330
18A
100
AcDbEntity
  8
LAYER_1
 62
     7
100
AcDbVertex
100
AcDb2dVertex
 10
6.007219673233196
 20
6.668034182354347
 30
0.0
  0
VERTEX
  5
190
330
18A
100
AcDbEntity
  8
LAYER_1
 62
     7
100
AcDbVertex
100
AcDb2dVertex
 10
6.007219673233196
 20
6.669431210185332
 30
0.0
  0
VERTEX
  5
191
330
18A
100
AcDbEntity
  8
LAYER_1
 62
     7
100
AcDbVertex
100
AcDb2dVertex
 10
6.007572321035192
 20
6.670143287477824
 30
0.0
  0
VERTEX
  5
192
330
18A
100
AcDbEntity
  8
LAYER_1
 62
     7
100
AcDbVertex
100
AcDb2dVertex
 10
6.007572321035192
 20
6.670848583081816
 30
0.0
  0
VERTEX
  5
193
330
18A
100
AcDbEntity
  8
LAYER_1
 62
     7
100
AcDbVertex
100
AcDb2dVertex
 10
6.007952095591188
 20
6.671553878685808
 30
0.0
  0
VERTEX
  5
194
330
18A
100
AcDbEntity
  8
LAYER_1
 62
     7
100
AcDbVertex
100
AcDb2dVertex
 10
6.007952095591188
 20
6.672957688205293
 30
0.0
  0
VERTEX
  5
195
330
18A
100
AcDbEntity
  8
LAYER_1
 62
     7
100
AcDbVertex
100
AcDb2dVertex
 10
6.008277616639185
 20
6.673662983809285
 30
0.0
  0
VERTEX
  5
196
330
18A
100
AcDbEntity
  8
LAYER_1
 62
     7
100
AcDbVertex
100
AcDb2dVertex
 10
6.008277616639185
 20
6.674361497724777
 30
0.0
  0
VERTEX
  5
197
330
18A
100
AcDbEntity
  8
LAYER_1
 62
     7
100
AcDbVertex
100
AcDb2dVertex
 10
6.00863026444118
 20
6.67505322995177
 30
0.0
  0
VERTEX
  5
198
330
18A
100
AcDbEntity
  8
LAYER_1
 62
     7
100
AcDbVertex
100
AcDb2dVertex
 10
6.00863026444118
 20
6.676470602848254
 30
0.0
  0
VERTEX
  5
199
330
18A
100
AcDbEntity
  8
LAYER_1
 62
     7
100
AcDbVertex
100
AcDb2dVertex
 10
6.008982912243177
 20
6.677175898452246
 30
0.0
  0
VERTEX
  5
19A
330
18A
100
AcDbEntity
  8
LAYER_1
 62
     7
100
AcDbVertex
100
AcDb2dVertex
 10
6.008982912243177
 20
6.677874412367738
 30
0.0
  0
VERTEX
  5
19B
330
18A
100
AcDbEntity
  8
LAYER_1
 62
     7
100
AcDbVertex
100
AcDb2dVertex
 10
6.009321996668173
 20
6.678233841858234
 30
0.0
  0
VERTEX
  5
19C
330
18A
100
AcDbEntity
  8
LAYER_1
 62
     7
100
AcDbVertex
100
AcDb2dVertex
 10
6.009321996668173
 20
6.679630869689219
 30
0.0
  0
VERTEX
  5
19D
330
18A
100
AcDbEntity
  8
LAYER_1
 62
     7
100
AcDbVertex
100
AcDb2dVertex
 10
6.009688207847169
 20
6.680336165293211
 30
0.0
  0
VERTEX
  5
19E
330
18A
100
AcDbEntity
  8
LAYER_1
 62
     7
100
AcDbVertex
100
AcDb2dVertex
 10
6.009688207847169
 20
6.958561717691117
 30
0.0
  0
SEQEND
  5
19F
330
18A
100
AcDbEntity
  8
LAYER_1
  0
SPLINE
  5
1A0
330
40
100
AcDbEntity
  8
LAYER_1
 62
     7
100
AcDbSpline
210
0.0
220
0.0
230
1.0
 70
     8
 71
     3
 72
    32
 73
    28
 74
     0
 42
0.0000000001
 43
0.0000000001
 40
0.0
 40
0.0
 40
0.0
 40
0.0
 40
1.0
 40
1.0
 40
1.0
 40
2.0
 40
2.0
 40
2.0
 40
3.0
 40
3.0
 40
3.0
 40
4.0
 40
4.0
 40
4.0
 40
5.0
 40
5.0
 40
5.0
 40
6.0
 40
6.0
 40
6.0
 40
7.0
 40
7.0
 40
7.0
 40
8.0
 40
8.0
 40
8.0
 40
9.0
 40
9.0
 40
9.0
 40
9.0
 10
5.909102204016287
 20
7.314159554184662
 30
0.0
 10
5.909102204016287
 20
7.314159554184662
 30
0.0
 10
5.909102204016287
 20
7.313481385334669
 30
0.0
 10
5.909102204016287
 20
7.313481385334669
 30
0.0
 10
5.909102204016287
 20
7.313481385334669
 30
0.0
 10
5.908722429460291
 20
7.312769308042178
 30
0.0
 10
5.908722429460291
 20
7.312769308042178
 30
0.0
 10
5.908722429460291
 20
7.312769308042178
 30
0.0
 10
5.908369781658296
 20
7.312423441928681
 30
0.0
 10
5.908369781658296
 20
7.312423441928681
 30
0.0
 10
5.908369781658296
 20
7.312423441928681
 30
0.0
 10
5.908369781658296
 20
7.312064012438186
 30
0.0
 10
5.908369781658296
 20
7.312064012438186
 30
0.0
 10
5.908369781658296
 20
7.312064012438186
 30
0.0
 10
5.908044260610299
 20
7.312064012438186
 30
0.0
 10
5.908044260610299
 20
7.312064012438186
 30
0.0
 10
5.908044260610299
 20
7.312064012438186
 30
0.0
 10
5.908044260610299
 20
7.31170458294769
 30
0.0
 10
5.908044260610299
 20
7.31170458294769
 30
0.0
 10
5.908044260610299
 20
7.31170458294769
 30
0.0
 10
5.907325401629307
 20
7.311351935145693
 30
0.0
 10
5.907325401629307
 20
7.311351935145693
 30
0.0
 10
5.907325401629307
 20
7.311351935145693
 30
0.0
 10
5.903798923609346
 20
7.307839020502732
 30
0.0
 10
5.903798923609346
 20
7.307839020502732
 30
0.0
 10
5.901018431324377
 20
7.305194161987762
 30
0.0
 10
5.896651023930426
 20
7.301471015001304
 30
0.0
 10
5.894318123086451
 20
7.298697304404834
 30
0.0
  0
SPLINE
  5
1A1
330
40
100
AcDbEntity
  8
LAYER_1
 62
     7
100
AcDbSpline
210
0.0
220
0.0
230
1.0
 70
     8
 71
     3
 72
    17
 73
    13
 74
     0
 42
0.0000000001
 43
0.0000000001
 40
0.0
 40
0.0
 40
0.0
 40
0.0
 40
1.0
 40
1.0
 40
1.0
 40
2.0
 40
2.0
 40
2.0
 40
3.0
 40
3.0
 40
3.0
 40
4.0
 40
4.0
 40
4.0
 40
4.0
 10
5.908369781658296
 20
7.312423441928681
 30
0.0
 10
5.908369781658296
 20
7.312423441928681
 30
0.0
 10
5.908369781658296
 20
7.312064012438186
 30
0.0
 10
5.908369781658296
 20
7.312064012438186
 30
0.0
 10
5.908369781658296
 20
7.312064012438186
 30
0.0
 10
5.908044260610299
 20
7.312064012438186
 30
0.0
 10
5.908044260610299
 20
7.312064012438186
 30
0.0
 10
5.908044260610299
 20
7.312064012438186
 30
0.0
 10
5.904870430392334
 20
7.308896963908721
 30
0.0
 10
5.904870430392334
 20
7.308896963908721
 30
0.0
 10
5.901805107190368
 20
7.305540028101258
 30
0.0
 10
5.897030798486422
 20
7.302088148654796
 30
0.0
 10
5.894318123086451
 20
7.298697304404834
 30
0.0
  0
SPLINE
  5
1A2
330
40
100
AcDbEntity
  8
LAYER_1
 62
     7
100
AcDbSpline
210
0.0
220
0.0
230
1.0
 70
     8
 71
     3
 72
    29
 73
    25
 74
     0
 42
0.0000000001
 43
0.0000000001
 40
0.0
 40
0.0
 40
0.0
 40
0.0
 40
1.0
 40
1.0
 40
1.0
 40
2.0
 40
2.0
 40
2.0
 40
3.0
 40
3.0
 40
3.0
 40
4.0
 40
4.0
 40
4.0
 40
5.0
 40
5.0
 40
5.0
 40
6.0
 40
6.0
 40
6.0
 40
7.0
 40
7.0
 40
7.0
 40
8.0
 40
8.0
 40
8.0
 40
8.0
 10
5.894318123086451
 20
6.223779332101288
 30
0.0
 10
5.896759530946425
 20
6.220761480718822
 30
0.0
 10
5.899946924541389
 20
6.218387889743848
 30
0.0
 10
5.902754543580357
 20
6.215695559409378
 30
0.0
 10
5.903948120756344
 20
6.214766468084888
 30
0.0
 10
5.906769303172314
 20
6.211226426687928
 30
0.0
 10
5.908044260610299
 20
6.210758490181433
 30
0.0
 10
5.908044260610299
 20
6.210758490181433
 30
0.0
 10
5.908044260610299
 20
6.210426187444936
 30
0.0
 10
5.908044260610299
 20
6.210426187444936
 30
0.0
 10
5.908044260610299
 20
6.210426187444936
 30
0.0
 10
5.908369781658296
 20
6.210426187444936
 30
0.0
 10
5.908369781658296
 20
6.210426187444936
 30
0.0
 10
5.908369781658296
 20
6.210426187444936
 30
0.0
 10
5.908369781658296
 20
6.210073539642941
 30
0.0
 10
5.908369781658296
 20
6.210073539642941
 30
0.0
 10
5.908369781658296
 20
6.210073539642941
 30
0.0
 10
5.908722429460291
 20
6.209720891840944
 30
0.0
 10
5.908722429460291
 20
6.209720891840944
 30
0.0
 10
5.908722429460291
 20
6.209720891840944
 30
0.0
 10
5.909102204016287
 20
6.208995251171452
 30
0.0
 10
5.909102204016287
 20
6.208995251171452
 30
0.0
 10
5.909102204016287
 20
6.208995251171452
 30
0.0
 10
5.909102204016287
 20
6.20831030063296
 30
0.0
 10
5.909102204016287
 20
6.20831030063296
 30
0.0
  0
SPLINE
  5
1A3
330
40
100
AcDbEntity
  8
LAYER_1
 62
     7
100
AcDbSpline
210
0.0
220
0.0
230
1.0
 70
     8
 71
     3
 72
    14
 73
    10
 74
     0
 42
0.0000000001
 43
0.0000000001
 40
0.0
 40
0.0
 40
0.0
 40
0.0
 40
1.0
 40
1.0
 40
1.0
 40
2.0
 40
2.0
 40
2.0
 40
3.0
 40
3.0
 40
3.0
 40
3.0
 10
5.894318123086451
 20
6.223779332101288
 30
0.0
 10
5.897085051994421
 20
6.220381706162826
 30
0.0
 10
5.90076072716138
 20
6.217818227909854
 30
0.0
 10
5.903798923609346
 20
6.214637616003389
 30
0.0
 10
5.903798923609346
 20
6.214637616003389
 30
0.0
 10
5.908044260610299
 20
6.210426187444936
 30
0.0
 10
5.908044260610299
 20
6.210426187444936
 30
0.0
 10
5.908044260610299
 20
6.210426187444936
 30
0.0
 10
5.908369781658296
 20
6.210426187444936
 30
0.0
 10
5.908369781658296
 20
6.210426187444936
 30
0.0
  0
SPLINE
  5
1A4
330
40
100
AcDbEntity
  8
LAYER_1
 62
     7
100
AcDbSpline
210
0.0
220
0.0
230
1.0
 70
     8
 71
     3
 72
    11
 73
     7
 74
     0
 42
0.0000000001
 43
0.0000000001
 40
0.0
 40
0.0
 40
0.0
 40
0.0
 40
1.0
 40
1.0
 40
1.0
 40
2.0
 40
2.0
 40
2.0
 40
2.0
 10
5.879886689958612
 20
7.411951502353575
 30
0.0
 10
5.886505617934539
 20
7.411978629107574
 30
0.0
 10
5.892500630568472
 20
7.411395403896581
 30
0.0
 10
5.899241628937397
 20
7.411598854551579
 30
0.0
 10
5.899241628937397
 20
7.411598854551579
 30
0.0
 10
5.898902544512401
 20
7.411598854551579
 30
0.0
 10
5.898902544512401
 20
7.411598854551579
 30
0.0
  0
SPLINE
  5
1A5
330
40
100
AcDbEntity
  8
LAYER_1
 62
     7
100
AcDbSpline
210
0.0
220
0.0
230
1.0
 70
     8
 71
     3
 72
     8
 73
     4
 74
     0
 42
0.0000000001
 43
0.0000000001
 40
0.0
 40
0.0
 40
0.0
 40
0.0
 40
1.0
 40
1.0
 40
1.0
 40
1.0
 10
5.898902544512401
 20
7.411598854551579
 30
0.0
 10
5.904029501018344
 20
7.411639544682578
 30
0.0
 10
5.909495541949283
 20
7.407177193649628
 30
0.0
 10
5.909102204016287
 20
7.401751842849688
 30
0.0
  0
POLYLINE
  5
1A6
330
40
100
AcDbEntity
  8
LAYER_1
 62
     7
100
AcDb2dPolyline
 66
     1
 10
0.0
 20
0.0
 30
0.0
  0
VERTEX
  5
1A7
330
1A6
100
AcDbEntity
  8
LAYER_1
 62
     7
100
AcDbVertex
100
AcDb2dVertex
 10
5.87920852110862
 20
7.411951502353575
 30
0.0
  0
VERTEX
  5
1A8
330
1A6
100
AcDbEntity
  8
LAYER_1
 62
     7
100
AcDbVertex
100
AcDb2dVertex
 10
5.879886689958612
 20
7.411951502353575
 30
0.0
  0
SEQEND
  5
1A9
330
1A6
100
AcDbEntity
  8
LAYER_1
  0
SPLINE
  5
1AA
330
40
100
AcDbEntity
  8
LAYER_1
 62
     7
100
AcDbSpline
210
0.0
220
0.0
230
1.0
 70
     8
 71
     3
 72
    11
 73
     7
 74
     0
 42
0.0000000001
 43
0.0000000001
 40
0.0
 40
0.0
 40
0.0
 40
0.0
 40
1.0
 40
1.0
 40
1.0
 40
2.0
 40
2.0
 40
2.0
 40
2.0
 10
5.909102204016287
 20
6.12107065976993
 30
0.0
 10
5.909319218048285
 20
6.11567921741249
 30
0.0
 10
5.90432789531234
 20
6.110599732726047
 30
0.0
 10
5.898902544512401
 20
6.110871000266044
 30
0.0
 10
5.892392123552473
 20
6.110864218577544
 30
0.0
 10
5.886451364426539
 20
6.111033760790042
 30
0.0
 10
5.879886689958612
 20
6.110525134152548
 30
0.0
  0
POLYLINE
  5
1AB
330
40
100
AcDbEntity
  8
LAYER_1
 62
     7
100
AcDb2dPolyline
 66
     1
 10
0.0
 20
0.0
 30
0.0
  0
VERTEX
  5
1AC
330
1AB
100
AcDbEntity
  8
LAYER_1
 62
     7
100
AcDbVertex
100
AcDb2dVertex
 10
5.879886689958612
 20
6.110525134152548
 30
0.0
  0
VERTEX
  5
1AD
330
1AB
100
AcDbEntity
  8
LAYER_1
 62
     7
100
AcDbVertex
100
AcDb2dVertex
 10
5.87920852110862
 20
6.110525134152548
 30
0.0
  0
SEQEND
  5
1AE
330
1AB
100
AcDbEntity
  8
LAYER_1
  0
POLYLINE
  5
1AF
330
40
100
AcDbEntity
  8
LAYER_1
 62
     7
100
AcDb2dPolyline
 66
     1
 10
0.0
 20
0.0
 30
0.0
  0
VERTEX
  5
1B0
330
1AF
100
AcDbEntity
  8
LAYER_1
 62
     7
100
AcDbVertex
100
AcDb2dVertex
 10
5.909102204016287
 20
6.20831030063296
 30
0.0
  0
VERTEX
  5
1B1
330
1AF
100
AcDbEntity
  8
LAYER_1
 62
     7
100
AcDbVertex
100
AcDb2dVertex
 10
5.909102204016287
 20
6.12107065976993
 30
0.0
  0
SEQEND
  5
1B2
330
1AF
100
AcDbEntity
  8
LAYER_1
  0
POLYLINE
  5
1B3
330
40
100
AcDbEntity
  8
LAYER_1
 62
     7
100
AcDb2dPolyline
 66
     1
 10
0.0
 20
0.0
 30
0.0
  0
VERTEX
  5
1B4
330
1B3
100
AcDbEntity
  8
LAYER_1
 62
     7
100
AcDbVertex
100
AcDb2dVertex
 10
5.909102204016287
 20
7.401751842849688
 30
0.0
  0
VERTEX
  5
1B5
330
1B3
100
AcDbEntity
  8
LAYER_1
 62
     7
100
AcDbVertex
100
AcDb2dVertex
 10
5.909102204016287
 20
7.314159554184662
 30
0.0
  0
SEQEND
  5
1B6
330
1B3
100
AcDbEntity
  8
LAYER_1
  0
POLYLINE
  5
1B7
330
40
100
AcDbEntity
  8
LAYER_1
 62
     7
100
AcDb2dPolyline
 66
     1
 10
0.0
 20
0.0
 30
0.0
  0
VERTEX
  5
1B8
330
1B7
100
AcDbEntity
  8
LAYER_1
 62
     7
100
AcDbVertex
100
AcDb2dVertex
 10
5.894318123086451
 20
6.866758000467637
 30
0.0
  0
VERTEX
  5
1B9
330
1B7
100
AcDbEntity
  8
LAYER_1
 62
     7
100
AcDbVertex
100
AcDb2dVertex
 10
5.894684334265448
 20
6.866758000467637
 30
0.0
  0
SEQEND
  5
1BA
330
1B7
100
AcDbEntity
  8
LAYER_1
  0
POLYLINE
  5
1BB
330
40
100
AcDbEntity
  8
LAYER_1
 62
     7
100
AcDb2dPolyline
 66
     1
 10
0.0
 20
0.0
 30
0.0
  0
VERTEX
  5
1BC
330
1BB
100
AcDbEntity
  8
LAYER_1
 62
     7
100
AcDbVertex
100
AcDb2dVertex
 10
5.894318123086451
 20
7.298697304404834
 30
0.0
  0
VERTEX
  5
1BD
330
1BB
100
AcDbEntity
  8
LAYER_1
 62
     7
100
AcDbVertex
100
AcDb2dVertex
 10
5.894318123086451
 20
7.299755247810823
 30
0.0
  0
SEQEND
  5
1BE
330
1BB
100
AcDbEntity
  8
LAYER_1
  0
POLYLINE
  5
1BF
330
40
100
AcDbEntity
  8
LAYER_1
 62
     7
100
AcDb2dPolyline
 66
     1
 10
0.0
 20
0.0
 30
0.0
  0
VERTEX
  5
1C0
330
1BF
100
AcDbEntity
  8
LAYER_1
 62
     7
100
AcDbVertex
100
AcDb2dVertex
 10
5.894318123086451
 20
6.2227281703838
 30
0.0
  0
VERTEX
  5
1C1
330
1BF
100
AcDbEntity
  8
LAYER_1
 62
     7
100
AcDbVertex
100
AcDb2dVertex
 10
5.894318123086451
 20
6.223779332101288
 30
0.0
  0
SEQEND
  5
1C2
330
1BF
100
AcDbEntity
  8
LAYER_1
  0
POLYLINE
  5
1C3
330
40
100
AcDbEntity
  8
LAYER_1
 62
     7
100
AcDb2dPolyline
 66
     1
 10
0.0
 20
0.0
 30
0.0
  0
VERTEX
  5
1C4
330
1C3
100
AcDbEntity
  8
LAYER_1
 62
     7
100
AcDbVertex
100
AcDb2dVertex
 10
5.744497060746117
 20
7.414420036967547
 30
0.0
  0
VERTEX
  5
1C5
330
1C3
100
AcDbEntity
  8
LAYER_1
 62
     7
100
AcDbVertex
100
AcDb2dVertex
 10
5.724775910588337
 20
7.414074170854051
 30
0.0
  0
SEQEND
  5
1C6
330
1C3
100
AcDbEntity
  8
LAYER_1
  0
POLYLINE
  5
1C7
330
40
100
AcDbEntity
  8
LAYER_1
 62
     7
100
AcDb2dPolyline
 66
     1
 10
0.0
 20
0.0
 30
0.0
  0
VERTEX
  5
1C8
330
1C7
100
AcDbEntity
  8
LAYER_1
 62
     7
100
AcDbVertex
100
AcDb2dVertex
 10
5.744497060746117
 20
6.108416029029071
 30
0.0
  0
VERTEX
  5
1C9
330
1C7
100
AcDbEntity
  8
LAYER_1
 62
     7
100
AcDbVertex
100
AcDb2dVertex
 10
5.724775910588337
 20
6.108775458519567
 30
0.0
  0
SEQEND
  5
1CA
330
1C7
100
AcDbEntity
  8
LAYER_1
  0
POLYLINE
  5
1CB
330
40
100
AcDbEntity
  8
LAYER_1
 62
     7
100
AcDb2dPolyline
 66
     1
 10
0.0
 20
0.0
 30
0.0
  0
VERTEX
  5
1CC
330
1CB
100
AcDbEntity
  8
LAYER_1
 62
     7
100
AcDbVertex
100
AcDb2dVertex
 10
5.879886689958612
 20
7.411951502353575
 30
0.0
  0
VERTEX
  5
1CD
330
1CB
100
AcDbEntity
  8
LAYER_1
 62
     7
100
AcDbVertex
100
AcDb2dVertex
 10
5.744497060746117
 20
7.414420036967547
 30
0.0
  0
SEQEND
  5
1CE
330
1CB
100
AcDbEntity
  8
LAYER_1
  0
POLYLINE
  5
1CF
330
40
100
AcDbEntity
  8
LAYER_1
 62
     7
100
AcDb2dPolyline
 66
     1
 10
0.0
 20
0.0
 30
0.0
  0
VERTEX
  5
1D0
330
1CF
100
AcDbEntity
  8
LAYER_1
 62
     7
100
AcDbVertex
100
AcDb2dVertex
 10
5.879886689958612
 20
6.110525134152548
 30
0.0
  0
VERTEX
  5
1D1
330
1CF
100
AcDbEntity
  8
LAYER_1
 62
     7
100
AcDbVertex
100
AcDb2dVertex
 10
5.744497060746117
 20
6.108416029029071
 30
0.0
  0
SEQEND
  5
1D2
330
1CF
100
AcDbEntity
  8
LAYER_1
  0
POLYLINE
  5
1D3
330
40
100
AcDbEntity
  8
LAYER_1
 62
     7
100
AcDb2dPolyline
 66
     1
 10
0.0
 20
0.0
 30
0.0
  0
VERTEX
  5
1D4
330
1D3
100
AcDbEntity
  8
LAYER_1
 62
     7
100
AcDbVertex
100
AcDb2dVertex
 10
5.894318123086451
 20
6.2227281703838
 30
0.0
  0
VERTEX
  5
1D5
330
1D3
100
AcDbEntity
  8
LAYER_1
 62
     7
100
AcDbVertex
100
AcDb2dVertex
 10
5.894318123086451
 20
7.299755247810823
 30
0.0
  0
SEQEND
  5
1D6
330
1D3
100
AcDbEntity
  8
LAYER_1
  0
POLYLINE
  5
1D7
330
40
100
AcDbEntity
  8
LAYER_1
 62
     7
100
AcDb2dPolyline
 66
     1
 10
0.0
 20
0.0
 30
0.0
  0
VERTEX
  5
1D8
330
1D7
100
AcDbEntity
  8
LAYER_1
 62
     7
100
AcDbVertex
100
AcDb2dVertex
 10
5.724775910588337
 20
6.108775458519567
 30
0.0
  0
VERTEX
  5
1D9
330
1D7
100
AcDbEntity
  8
LAYER_1
 62
     7
100
AcDbVertex
100
AcDb2dVertex
 10
5.724775910588337
 20
7.414074170854051
 30
0.0
  0
SEQEND
  5
1DA
330
1D7
100
AcDbEntity
  8
LAYER_1
  0
POLYLINE
  5
1DB
330
40
100
AcDbEntity
  8
LAYER_1
 62
     7
100
AcDb2dPolyline
 66
     1
 10
0.0
 20
0.0
 30
0.0
  0
VERTEX
  5
1DC
330
1DB
100
AcDbEntity
  8
LAYER_1
 62
     7
100
AcDbVertex
100
AcDb2dVertex
 10
5.370920968039272
 20
7.319449271214603
 30
0.0
  0
VERTEX
  5
1DD
330
1DB
100
AcDbEntity
  8
LAYER_1
 62
     7
100
AcDbVertex
100
AcDb2dVertex
 10
5.370920968039272
 20
7.264578629561713
 30
0.0
  0
SEQEND
  5
1DE
330
1DB
100
AcDbEntity
  8
LAYER_1
  0
POLYLINE
  5
1DF
330
40
100
AcDbEntity
  8
LAYER_1
 62
     7
100
AcDb2dPolyline
 66
     1
 10
0.0
 20
0.0
 30
0.0
  0
VERTEX
  5
1E0
330
1DF
100
AcDbEntity
  8
LAYER_1
 62
     7
100
AcDbVertex
100
AcDb2dVertex
 10
5.370920968039272
 20
7.264578629561713
 30
0.0
  0
VERTEX
  5
1E1
330
1DF
100
AcDbEntity
  8
LAYER_1
 62
     7
100
AcDbVertex
100
AcDb2dVertex
 10
5.371639827020264
 20
7.262815390551733
 30
0.0
  0
VERTEX
  5
1E2
330
1DF
100
AcDbEntity
  8
LAYER_1
 62
     7
100
AcDbVertex
100
AcDb2dVertex
 10
5.373416629407244
 20
7.262116876636241
 30
0.0
  0
SEQEND
  5
1E3
330
1DF
100
AcDbEntity
  8
LAYER_1
  0
POLYLINE
  5
1E4
330
40
100
AcDbEntity
  8
LAYER_1
 62
     7
100
AcDb2dPolyline
 66
     1
 10
0.0
 20
0.0
 30
0.0
  0
VERTEX
  5
1E5
330
1E4
100
AcDbEntity
  8
LAYER_1
 62
     7
100
AcDbVertex
100
AcDb2dVertex
 10
5.375858037267217
 20
7.321917805828576
 30
0.0
  0
VERTEX
  5
1E6
330
1E4
100
AcDbEntity
  8
LAYER_1
 62
     7
100
AcDbVertex
100
AcDb2dVertex
 10
5.373416629407244
 20
7.321917805828576
 30
0.0
  0
VERTEX
  5
1E7
330
1E4
100
AcDbEntity
  8
LAYER_1
 62
     7
100
AcDbVertex
100
AcDb2dVertex
 10
5.371639827020264
 20
7.321205728536084
 30
0.0
  0
VERTEX
  5
1E8
330
1E4
100
AcDbEntity
  8
LAYER_1
 62
     7
100
AcDbVertex
100
AcDb2dVertex
 10
5.370920968039272
 20
7.319449271214603
 30
0.0
  0
SEQEND
  5
1E9
330
1E4
100
AcDbEntity
  8
LAYER_1
  0
POLYLINE
  5
1EA
330
40
100
AcDbEntity
  8
LAYER_1
 62
     7
100
AcDb2dPolyline
 66
     1
 10
0.0
 20
0.0
 30
0.0
  0
VERTEX
  5
1EB
330
1EA
100
AcDbEntity
  8
LAYER_1
 62
     7
100
AcDbVertex
100
AcDb2dVertex
 10
5.374461009436232
 20
7.262116876636241
 30
0.0
  0
VERTEX
  5
1EC
330
1EA
100
AcDbEntity
  8
LAYER_1
 62
     7
100
AcDbVertex
100
AcDb2dVertex
 10
5.373416629407244
 20
7.262116876636241
 30
0.0
  0
SEQEND
  5
1ED
330
1EA
100
AcDbEntity
  8
LAYER_1
  0
POLYLINE
  5
1EE
330
40
100
AcDbEntity
  8
LAYER_1
 62
     7
100
AcDb2dPolyline
 66
     1
 10
0.0
 20
0.0
 30
0.0
  0
VERTEX
  5
1EF
330
1EE
100
AcDbEntity
  8
LAYER_1
 62
     7
100
AcDbVertex
100
AcDb2dVertex
 10
5.370920968039272
 20
6.257898006944409
 30
0.0
  0
VERTEX
  5
1F0
330
1EE
100
AcDbEntity
  8
LAYER_1
 62
     7
100
AcDbVertex
100
AcDb2dVertex
 10
5.370920968039272
 20
6.203047710357018
 30
0.0
  0
SEQEND
  5
1F1
330
1EE
100
AcDbEntity
  8
LAYER_1
  0
POLYLINE
  5
1F2
330
40
100
AcDbEntity
  8
LAYER_1
 62
     7
100
AcDb2dPolyline
 66
     1
 10
0.0
 20
0.0
 30
0.0
  0
VERTEX
  5
1F3
330
1F2
100
AcDbEntity
  8
LAYER_1
 62
     7
100
AcDbVertex
100
AcDb2dVertex
 10
5.370920968039272
 20
6.203047710357018
 30
0.0
  0
VERTEX
  5
1F4
330
1F2
100
AcDbEntity
  8
LAYER_1
 62
     7
100
AcDbVertex
100
AcDb2dVertex
 10
5.371639827020264
 20
6.201270907970038
 30
0.0
  0
VERTEX
  5
1F5
330
1F2
100
AcDbEntity
  8
LAYER_1
 62
     7
100
AcDbVertex
100
AcDb2dVertex
 10
5.373416629407244
 20
6.200558830677546
 30
0.0
  0
SEQEND
  5
1F6
330
1F2
100
AcDbEntity
  8
LAYER_1
  0
POLYLINE
  5
1F7
330
40
100
AcDbEntity
  8
LAYER_1
 62
     7
100
AcDb2dPolyline
 66
     1
 10
0.0
 20
0.0
 30
0.0
  0
VERTEX
  5
1F8
330
1F7
100
AcDbEntity
  8
LAYER_1
 62
     7
100
AcDbVertex
100
AcDb2dVertex
 10
5.375858037267217
 20
6.260366541558381
 30
0.0
  0
VERTEX
  5
1F9
330
1F7
100
AcDbEntity
  8
LAYER_1
 62
     7
100
AcDbVertex
100
AcDb2dVertex
 10
5.373416629407244
 20
6.260366541558381
 30
0.0
  0
VERTEX
  5
1FA
330
1F7
100
AcDbEntity
  8
LAYER_1
 62
     7
100
AcDbVertex
100
AcDb2dVertex
 10
5.371639827020264
 20
6.259661245954389
 30
0.0
  0
VERTEX
  5
1FB
330
1F7
100
AcDbEntity
  8
LAYER_1
 62
     7
100
AcDbVertex
100
AcDb2dVertex
 10
5.370920968039272
 20
6.257898006944409
 30
0.0
  0
SEQEND
  5
1FC
330
1F7
100
AcDbEntity
  8
LAYER_1
  0
POLYLINE
  5
1FD
330
40
100
AcDbEntity
  8
LAYER_1
 62
     7
100
AcDb2dPolyline
 66
     1
 10
0.0
 20
0.0
 30
0.0
  0
VERTEX
  5
1FE
330
1FD
100
AcDbEntity
  8
LAYER_1
 62
     7
100
AcDbVertex
100
AcDb2dVertex
 10
5.375858037267217
 20
6.200558830677546
 30
0.0
  0
VERTEX
  5
1FF
330
1FD
100
AcDbEntity
  8
LAYER_1
 62
     7
100
AcDbVertex
100
AcDb2dVertex
 10
5.373416629407244
 20
6.200558830677546
 30
0.0
  0
SEQEND
  5
200
330
1FD
100
AcDbEntity
  8
LAYER_1
  0
POLYLINE
  5
201
330
40
100
AcDbEntity
  8
LAYER_1
 62
     7
100
AcDb2dPolyline
 66
     1
 10
0.0
 20
0.0
 30
0.0
  0
VERTEX
  5
202
330
201
100
AcDbEntity
  8
LAYER_1
 62
     7
100
AcDbVertex
100
AcDb2dVertex
 10
5.375858037267217
 20
7.262469524438237
 30
0.0
  0
VERTEX
  5
203
330
201
100
AcDbEntity
  8
LAYER_1
 62
     7
100
AcDbVertex
100
AcDb2dVertex
 10
5.374461009436232
 20
7.262469524438237
 30
0.0
  0
SEQEND
  5
204
330
201
100
AcDbEntity
  8
LAYER_1
  0
POLYLINE
  5
205
330
40
100
AcDbEntity
  8
LAYER_1
 62
     7
100
AcDb2dPolyline
 66
     1
 10
0.0
 20
0.0
 30
0.0
  0
VERTEX
  5
206
330
205
100
AcDbEntity
  8
LAYER_1
 62
     7
100
AcDbVertex
100
AcDb2dVertex
 10
5.724775910588337
 20
6.108775458519567
 30
0.0
  0
VERTEX
  5
207
330
205
100
AcDbEntity
  8
LAYER_1
 62
     7
100
AcDbVertex
100
AcDb2dVertex
 10
5.70472923938256
 20
6.108416029029071
 30
0.0
  0
VERTEX
  5
208
330
205
100
AcDbEntity
  8
LAYER_1
 62
     7
100
AcDbVertex
100
AcDb2dVertex
 10
5.385718612346108
 20
6.113685400993512
 30
0.0
  0
SEQEND
  5
209
330
205
100
AcDbEntity
  8
LAYER_1
  0
POLYLINE
  5
20A
330
40
100
AcDbEntity
  8
LAYER_1
 62
     7
100
AcDb2dPolyline
 66
     1
 10
0.0
 20
0.0
 30
0.0
  0
VERTEX
  5
20B
330
20A
100
AcDbEntity
  8
LAYER_1
 62
     7
100
AcDbVertex
100
AcDb2dVertex
 10
5.724775910588337
 20
7.414074170854051
 30
0.0
  0
VERTEX
  5
20C
330
20A
100
AcDbEntity
  8
LAYER_1
 62
     7
100
AcDbVertex
100
AcDb2dVertex
 10
5.70472923938256
 20
7.414420036967547
 30
0.0
  0
SEQEND
  5
20D
330
20A
100
AcDbEntity
  8
LAYER_1
  0
POLYLINE
  5
20E
330
40
100
AcDbEntity
  8
LAYER_1
 62
     7
100
AcDb2dPolyline
 66
     1
 10
0.0
 20
0.0
 30
0.0
  0
VERTEX
  5
20F
330
20E
100
AcDbEntity
  8
LAYER_1
 62
     7
100
AcDbVertex
100
AcDb2dVertex
 10
5.70472923938256
 20
7.414420036967547
 30
0.0
  0
VERTEX
  5
210
330
20E
100
AcDbEntity
  8
LAYER_1
 62
     7
100
AcDbVertex
100
AcDb2dVertex
 10
5.385718612346108
 20
7.40879123551261
 30
0.0
  0
VERTEX
  5
211
330
20E
100
AcDbEntity
  8
LAYER_1
 62
     7
100
AcDbVertex
100
AcDb2dVertex
 10
5.381839486524151
 20
7.407740073795122
 30
0.0
  0
VERTEX
  5
212
330
20E
100
AcDbEntity
  8
LAYER_1
 62
     7
100
AcDbVertex
100
AcDb2dVertex
 10
5.378665656306186
 20
7.405610623606146
 30
0.0
  0
VERTEX
  5
213
330
20E
100
AcDbEntity
  8
LAYER_1
 62
     7
100
AcDbVertex
100
AcDb2dVertex
 10
5.376549769494209
 20
7.402457138453681
 30
0.0
  0
VERTEX
  5
214
330
20E
100
AcDbEntity
  8
LAYER_1
 62
     7
100
AcDbVertex
100
AcDb2dVertex
 10
5.375858037267217
 20
7.398591576008723
 30
0.0
  0
SEQEND
  5
215
330
20E
100
AcDbEntity
  8
LAYER_1
  0
SPLINE
  5
216
330
40
100
AcDbEntity
  8
LAYER_1
 62
     7
100
AcDbSpline
210
0.0
220
0.0
230
1.0
 70
     8
 71
     3
 72
     8
 73
     4
 74
     0
 42
0.0000000001
 43
0.0000000001
 40
0.0
 40
0.0
 40
0.0
 40
0.0
 40
1.0
 40
1.0
 40
1.0
 40
1.0
 10
5.675540852078885
 20
6.195642106515101
 30
0.0
 10
5.685360737026776
 20
6.195770958596599
 30
0.0
 10
5.693905664536681
 20
6.204885547940498
 30
0.0
 10
5.693824284274681
 20
6.214637616003389
 30
0.0
  0
POLYLINE
  5
217
330
40
100
AcDbEntity
  8
LAYER_1
 62
     7
100
AcDb2dPolyline
 66
     1
 10
0.0
 20
0.0
 30
0.0
  0
VERTEX
  5
218
330
217
100
AcDbEntity
  8
LAYER_1
 62
     7
100
AcDbVertex
100
AcDb2dVertex
 10
5.693824284274681
 20
7.307486372700736
 30
0.0
  0
VERTEX
  5
219
330
217
100
AcDbEntity
  8
LAYER_1
 62
     7
100
AcDbVertex
100
AcDb2dVertex
 10
5.693824284274681
 20
6.214637616003389
 30
0.0
  0
SEQEND
  5
21A
330
217
100
AcDbEntity
  8
LAYER_1
  0
SPLINE
  5
21B
330
40
100
AcDbEntity
  8
LAYER_1
 62
     7
100
AcDbSpline
210
0.0
220
0.0
230
1.0
 70
     8
 71
     3
 72
     8
 73
     4
 74
     0
 42
0.0000000001
 43
0.0000000001
 40
0.0
 40
0.0
 40
0.0
 40
0.0
 40
1.0
 40
1.0
 40
1.0
 40
1.0
 10
5.693824284274681
 20
7.307486372700736
 30
0.0
 10
5.694122678568678
 20
7.317496144926625
 30
0.0
 10
5.685265793387776
 20
7.32693625531852
 30
0.0
 10
5.675188204276888
 20
7.326834529991022
 30
0.0
  0
SPLINE
  5
21C
330
40
100
AcDbEntity
  8
LAYER_1
 62
     7
100
AcDbSpline
210
0.0
220
0.0
230
1.0
 70
     8
 71
     3
 72
    47
 73
    43
 74
     0
 42
0.0000000001
 43
0.0000000001
 40
0.0
 40
0.0
 40
0.0
 40
0.0
 40
1.0
 40
1.0
 40
1.0
 40
2.0
 40
2.0
 40
2.0
 40
3.0
 40
3.0
 40
3.0
 40
4.0
 40
4.0
 40
4.0
 40
5.0
 40
5.0
 40
5.0
 40
6.0
 40
6.0
 40
6.0
 40
7.0
 40
7.0
 40
7.0
 40
8.0
 40
8.0
 40
8.0
 40
9.0
 40
9.0
 40
9.0
 40
10.0
 40
10.0
 40
10.0
 40
11.0
 40
11.0
 40
11.0
 40
12.0
 40
12.0
 40
12.0
 40
13.0
 40
13.0
 40
13.0
 40
14.0
 40
14.0
 40
14.0
 40
14.0
 10
5.385352401167112
 20
7.337027407806408
 30
0.0
 10
5.385352401167112
 20
7.337027407806408
 30
0.0
 10
5.38466066894012
 20
7.337393618985404
 30
0.0
 10
5.38466066894012
 20
7.337393618985404
 30
0.0
 10
5.38466066894012
 20
7.337393618985404
 30
0.0
 10
5.382531218751143
 20
7.337393618985404
 30
0.0
 10
5.382531218751143
 20
7.337393618985404
 30
0.0
 10
5.382531218751143
 20
7.337393618985404
 30
0.0
 10
5.381839486524151
 20
7.3377394850989
 30
0.0
 10
5.381839486524151
 20
7.3377394850989
 30
0.0
 10
5.381839486524151
 20
7.3377394850989
 30
0.0
 10
5.381486838722155
 20
7.3377394850989
 30
0.0
 10
5.381486838722155
 20
7.3377394850989
 30
0.0
 10
5.380428895316166
 20
7.338309146932894
 30
0.0
 10
5.37920819138618
 20
7.338180294851395
 30
0.0
 10
5.37831300850419
 20
7.339136512929884
 30
0.0
 10
5.37831300850419
 20
7.339136512929884
 30
0.0
 10
5.377607712900198
 20
7.339848590222377
 30
0.0
 10
5.377607712900198
 20
7.339848590222377
 30
0.0
 10
5.377607712900198
 20
7.339848590222377
 30
0.0
 10
5.377282191852202
 20
7.339848590222377
 30
0.0
 10
5.377282191852202
 20
7.339848590222377
 30
0.0
 10
5.377282191852202
 20
7.339848590222377
 30
0.0
 10
5.376902417296206
 20
7.340201238024372
 30
0.0
 10
5.376902417296206
 20
7.340201238024372
 30
0.0
 10
5.376902417296206
 20
7.340201238024372
 30
0.0
 10
5.376549769494209
 20
7.340553885826369
 30
0.0
 10
5.376549769494209
 20
7.340553885826369
 30
0.0
 10
5.376549769494209
 20
7.340553885826369
 30
0.0
 10
5.376549769494209
 20
7.340899751939864
 30
0.0
 10
5.376549769494209
 20
7.340899751939864
 30
0.0
 10
5.376549769494209
 20
7.340899751939864
 30
0.0
 10
5.376224248446213
 20
7.34125918143036
 30
0.0
 10
5.376224248446213
 20
7.34125918143036
 30
0.0
 10
5.376224248446213
 20
7.34125918143036
 30
0.0
 10
5.376224248446213
 20
7.341605047543857
 30
0.0
 10
5.376224248446213
 20
7.341605047543857
 30
0.0
 10
5.376224248446213
 20
7.341605047543857
 30
0.0
 10
5.375858037267217
 20
7.341964477034353
 30
0.0
 10
5.375858037267217
 20
7.341964477034353
 30
0.0
 10
5.375858037267217
 20
7.341964477034353
 30
0.0
 10
5.375858037267217
 20
7.343022420440342
 30
0.0
 10
5.375858037267217
 20
7.343022420440342
 30
0.0
  0
POLYLINE
  5
21D
330
40
100
AcDbEntity
  8
LAYER_1
 62
     7
100
AcDb2dPolyline
 66
     1
 10
0.0
 20
0.0
 30
0.0
  0
VERTEX
  5
21E
330
21D
100
AcDbEntity
  8
LAYER_1
 62
     7
100
AcDbVertex
100
AcDb2dVertex
 10
5.385718612346108
 20
7.337027407806408
 30
0.0
  0
VERTEX
  5
21F
330
21D
100
AcDbEntity
  8
LAYER_1
 62
     7
100
AcDbVertex
100
AcDb2dVertex
 10
5.675188204276888
 20
7.326834529991022
 30
0.0
  0
SEQEND
  5
220
330
21D
100
AcDbEntity
  8
LAYER_1
  0
POLYLINE
  5
221
330
40
100
AcDbEntity
  8
LAYER_1
 62
     7
100
AcDb2dPolyline
 66
     1
 10
0.0
 20
0.0
 30
0.0
  0
VERTEX
  5
222
330
221
100
AcDbEntity
  8
LAYER_1
 62
     7
100
AcDbVertex
100
AcDb2dVertex
 10
5.675540852078885
 20
6.195642106515101
 30
0.0
  0
VERTEX
  5
223
330
221
100
AcDbEntity
  8
LAYER_1
 62
     7
100
AcDbVertex
100
AcDb2dVertex
 10
5.385718612346108
 20
6.182973912397242
 30
0.0
  0
SEQEND
  5
224
330
221
100
AcDbEntity
  8
LAYER_1
  0
POLYLINE
  5
225
330
40
100
AcDbEntity
  8
LAYER_1
 62
     7
100
AcDb2dPolyline
 66
     1
 10
0.0
 20
0.0
 30
0.0
  0
VERTEX
  5
226
330
225
100
AcDbEntity
  8
LAYER_1
 62
     7
100
AcDbVertex
100
AcDb2dVertex
 10
5.385352401167112
 20
6.182973912397242
 30
0.0
  0
VERTEX
  5
227
330
225
100
AcDbEntity
  8
LAYER_1
 62
     7
100
AcDbVertex
100
AcDb2dVertex
 10
5.38466066894012
 20
6.182973912397242
 30
0.0
  0
VERTEX
  5
228
330
225
100
AcDbEntity
  8
LAYER_1
 62
     7
100
AcDbVertex
100
AcDb2dVertex
 10
5.383941809959127
 20
6.182634827972246
 30
0.0
  0
VERTEX
  5
229
330
225
100
AcDbEntity
  8
LAYER_1
 62
     7
100
AcDbVertex
100
AcDb2dVertex
 10
5.382531218751143
 20
6.182634827972246
 30
0.0
  0
VERTEX
  5
22A
330
225
100
AcDbEntity
  8
LAYER_1
 62
     7
100
AcDbVertex
100
AcDb2dVertex
 10
5.381839486524151
 20
6.18227539848175
 30
0.0
  0
VERTEX
  5
22B
330
225
100
AcDbEntity
  8
LAYER_1
 62
     7
100
AcDbVertex
100
AcDb2dVertex
 10
5.381486838722155
 20
6.18227539848175
 30
0.0
  0
VERTEX
  5
22C
330
225
100
AcDbEntity
  8
LAYER_1
 62
     7
100
AcDbVertex
100
AcDb2dVertex
 10
5.380795106495162
 20
6.181929532368253
 30
0.0
  0
VERTEX
  5
22D
330
225
100
AcDbEntity
  8
LAYER_1
 62
     7
100
AcDbVertex
100
AcDb2dVertex
 10
5.38010337426817
 20
6.181929532368253
 30
0.0
  0
VERTEX
  5
22E
330
225
100
AcDbEntity
  8
LAYER_1
 62
     7
100
AcDbVertex
100
AcDb2dVertex
 10
5.379723599712174
 20
6.181583666254757
 30
0.0
  0
VERTEX
  5
22F
330
225
100
AcDbEntity
  8
LAYER_1
 62
     7
100
AcDbVertex
100
AcDb2dVertex
 10
5.379045430862182
 20
6.181583666254757
 30
0.0
  0
VERTEX
  5
230
330
225
100
AcDbEntity
  8
LAYER_1
 62
     7
100
AcDbVertex
100
AcDb2dVertex
 10
5.377607712900198
 20
6.180159511669773
 30
0.0
  0
VERTEX
  5
231
330
225
100
AcDbEntity
  8
LAYER_1
 62
     7
100
AcDbVertex
100
AcDb2dVertex
 10
5.377282191852202
 20
6.180159511669773
 30
0.0
  0
VERTEX
  5
232
330
225
100
AcDbEntity
  8
LAYER_1
 62
     7
100
AcDbVertex
100
AcDb2dVertex
 10
5.376902417296206
 20
6.179827208933276
 30
0.0
  0
VERTEX
  5
233
330
225
100
AcDbEntity
  8
LAYER_1
 62
     7
100
AcDbVertex
100
AcDb2dVertex
 10
5.376549769494209
 20
6.17946777944278
 30
0.0
  0
VERTEX
  5
234
330
225
100
AcDbEntity
  8
LAYER_1
 62
     7
100
AcDbVertex
100
AcDb2dVertex
 10
5.376549769494209
 20
6.179101568263785
 30
0.0
  0
VERTEX
  5
235
330
225
100
AcDbEntity
  8
LAYER_1
 62
     7
100
AcDbVertex
100
AcDb2dVertex
 10
5.376224248446213
 20
6.178769265527288
 30
0.0
  0
VERTEX
  5
236
330
225
100
AcDbEntity
  8
LAYER_1
 62
     7
100
AcDbVertex
100
AcDb2dVertex
 10
5.376224248446213
 20
6.178409836036792
 30
0.0
  0
VERTEX
  5
237
330
225
100
AcDbEntity
  8
LAYER_1
 62
     7
100
AcDbVertex
100
AcDb2dVertex
 10
5.375858037267217
 20
6.178063969923296
 30
0.0
  0
VERTEX
  5
238
330
225
100
AcDbEntity
  8
LAYER_1
 62
     7
100
AcDbVertex
100
AcDb2dVertex
 10
5.375858037267217
 20
6.177006026517308
 30
0.0
  0
SEQEND
  5
239
330
225
100
AcDbEntity
  8
LAYER_1
  0
POLYLINE
  5
23A
330
40
100
AcDbEntity
  8
LAYER_1
 62
     7
100
AcDb2dPolyline
 66
     1
 10
0.0
 20
0.0
 30
0.0
  0
VERTEX
  5
23B
330
23A
100
AcDbEntity
  8
LAYER_1
 62
     7
100
AcDbVertex
100
AcDb2dVertex
 10
5.385352401167112
 20
6.182973912397242
 30
0.0
  0
VERTEX
  5
23C
330
23A
100
AcDbEntity
  8
LAYER_1
 62
     7
100
AcDbVertex
100
AcDb2dVertex
 10
5.385718612346108
 20
6.182973912397242
 30
0.0
  0
SEQEND
  5
23D
330
23A
100
AcDbEntity
  8
LAYER_1
  0
POLYLINE
  5
23E
330
40
100
AcDbEntity
  8
LAYER_1
 62
     7
100
AcDb2dPolyline
 66
     1
 10
0.0
 20
0.0
 30
0.0
  0
VERTEX
  5
23F
330
23E
100
AcDbEntity
  8
LAYER_1
 62
     7
100
AcDbVertex
100
AcDb2dVertex
 10
5.375858037267217
 20
6.123885060497399
 30
0.0
  0
VERTEX
  5
240
330
23E
100
AcDbEntity
  8
LAYER_1
 62
     7
100
AcDbVertex
100
AcDb2dVertex
 10
5.376549769494209
 20
6.120019498052442
 30
0.0
  0
VERTEX
  5
241
330
23E
100
AcDbEntity
  8
LAYER_1
 62
     7
100
AcDbVertex
100
AcDb2dVertex
 10
5.378665656306186
 20
6.116852449522977
 30
0.0
  0
VERTEX
  5
242
330
23E
100
AcDbEntity
  8
LAYER_1
 62
     7
100
AcDbVertex
100
AcDb2dVertex
 10
5.381839486524151
 20
6.114763689465001
 30
0.0
  0
VERTEX
  5
243
330
23E
100
AcDbEntity
  8
LAYER_1
 62
     7
100
AcDbVertex
100
AcDb2dVertex
 10
5.385718612346108
 20
6.113685400993512
 30
0.0
  0
SEQEND
  5
244
330
23E
100
AcDbEntity
  8
LAYER_1
  0
POLYLINE
  5
245
330
40
100
AcDbEntity
  8
LAYER_1
 62
     7
100
AcDb2dPolyline
 66
     1
 10
0.0
 20
0.0
 30
0.0
  0
VERTEX
  5
246
330
245
100
AcDbEntity
  8
LAYER_1
 62
     7
100
AcDbVertex
100
AcDb2dVertex
 10
5.724775910588337
 20
7.414074170854051
 30
0.0
  0
VERTEX
  5
247
330
245
100
AcDbEntity
  8
LAYER_1
 62
     7
100
AcDbVertex
100
AcDb2dVertex
 10
5.724775910588337
 20
6.108775458519567
 30
0.0
  0
SEQEND
  5
248
330
245
100
AcDbEntity
  8
LAYER_1
  0
POLYLINE
  5
249
330
40
100
AcDbEntity
  8
LAYER_1
 62
     7
100
AcDb2dPolyline
 66
     1
 10
0.0
 20
0.0
 30
0.0
  0
VERTEX
  5
24A
330
249
100
AcDbEntity
  8
LAYER_1
 62
     7
100
AcDbVertex
100
AcDb2dVertex
 10
5.375858037267217
 20
6.123885060497399
 30
0.0
  0
VERTEX
  5
24B
330
249
100
AcDbEntity
  8
LAYER_1
 62
     7
100
AcDbVertex
100
AcDb2dVertex
 10
5.375858037267217
 20
7.398591576008723
 30
0.0
  0
SEQEND
  5
24C
330
249
100
AcDbEntity
  8
LAYER_1
  0
POLYLINE
  5
24D
330
40
100
AcDbEntity
  8
LAYER_1
 62
     7
100
AcDb2dPolyline
 66
     1
 10
0.0
 20
0.0
 30
0.0
  0
VERTEX
  5
24E
330
24D
100
AcDbEntity
  8
LAYER_1
 62
     7
100
AcDbVertex
100
AcDb2dVertex
 10
4.295765636638229
 20
6.818214674185177
 30
0.0
  0
VERTEX
  5
24F
330
24D
100
AcDbEntity
  8
LAYER_1
 62
     7
100
AcDbVertex
100
AcDb2dVertex
 10
4.296118284440225
 20
6.818214674185177
 30
0.0
  0
SEQEND
  5
250
330
24D
100
AcDbEntity
  8
LAYER_1
  0
POLYLINE
  5
251
330
40
100
AcDbEntity
  8
LAYER_1
 62
     7
100
AcDb2dPolyline
 66
     1
 10
0.0
 20
0.0
 30
0.0
  0
VERTEX
  5
252
330
251
100
AcDbEntity
  8
LAYER_1
 62
     7
100
AcDbVertex
100
AcDb2dVertex
 10
4.286271272738334
 20
6.811182063210755
 30
0.0
  0
VERTEX
  5
253
330
251
100
AcDbEntity
  8
LAYER_1
 62
     7
100
AcDbVertex
100
AcDb2dVertex
 10
4.288387159550311
 20
6.81259265441874
 30
0.0
  0
VERTEX
  5
254
330
251
100
AcDbEntity
  8
LAYER_1
 62
     7
100
AcDbVertex
100
AcDb2dVertex
 10
4.292591806420264
 20
6.816112350750201
 30
0.0
  0
VERTEX
  5
255
330
251
100
AcDbEntity
  8
LAYER_1
 62
     7
100
AcDbVertex
100
AcDb2dVertex
 10
4.295060341034237
 20
6.817868808071681
 30
0.0
  0
SEQEND
  5
256
330
251
100
AcDbEntity
  8
LAYER_1
  0
POLYLINE
  5
257
330
40
100
AcDbEntity
  8
LAYER_1
 62
     7
100
AcDb2dPolyline
 66
     1
 10
0.0
 20
0.0
 30
0.0
  0
VERTEX
  5
258
330
257
100
AcDbEntity
  8
LAYER_1
 62
     7
100
AcDbVertex
100
AcDb2dVertex
 10
4.295060341034237
 20
6.817868808071681
 30
0.0
  0
VERTEX
  5
259
330
257
100
AcDbEntity
  8
LAYER_1
 62
     7
100
AcDbVertex
100
AcDb2dVertex
 10
4.295765636638229
 20
6.818214674185177
 30
0.0
  0
SEQEND
  5
25A
330
257
100
AcDbEntity
  8
LAYER_1
  0
SPLINE
  5
25B
330
40
100
AcDbEntity
  8
LAYER_1
 62
     7
100
AcDbSpline
210
0.0
220
0.0
230
1.0
 70
     8
 71
     3
 72
     8
 73
     4
 74
     0
 42
0.0000000001
 43
0.0000000001
 40
0.0
 40
0.0
 40
0.0
 40
0.0
 40
1.0
 40
1.0
 40
1.0
 40
1.0
 10
4.295765636638229
 20
6.804149452236333
 30
0.0
 10
4.293202158385257
 20
6.805607515263818
 30
0.0
 10
4.288794060860306
 20
6.809256063676777
 30
0.0
 10
4.286271272738334
 20
6.811182063210755
 30
0.0
  0
POLYLINE
  5
25C
330
40
100
AcDbEntity
  8
LAYER_1
 62
     7
100
AcDb2dPolyline
 66
     1
 10
0.0
 20
0.0
 30
0.0
  0
VERTEX
  5
25D
330
25C
100
AcDbEntity
  8
LAYER_1
 62
     7
100
AcDbVertex
100
AcDb2dVertex
 10
4.522626680337706
 20
6.713756326220839
 30
0.0
  0
VERTEX
  5
25E
330
25C
100
AcDbEntity
  8
LAYER_1
 62
     7
100
AcDbVertex
100
AcDb2dVertex
 10
4.522626680337706
 20
6.715173699117323
 30
0.0
  0
SEQEND
  5
25F
330
25C
100
AcDbEntity
  8
LAYER_1
  0
POLYLINE
  5
260
330
40
100
AcDbEntity
  8
LAYER_1
 62
     7
100
AcDb2dPolyline
 66
     1
 10
0.0
 20
0.0
 30
0.0
  0
VERTEX
  5
261
330
260
100
AcDbEntity
  8
LAYER_1
 62
     7
100
AcDbVertex
100
AcDb2dVertex
 10
4.539174000277522
 20
6.715173699117323
 30
0.0
  0
VERTEX
  5
262
330
260
100
AcDbEntity
  8
LAYER_1
 62
     7
100
AcDbVertex
100
AcDb2dVertex
 10
4.478328691056198
 20
6.715173699117323
 30
0.0
  0
SEQEND
  5
263
330
260
100
AcDbEntity
  8
LAYER_1
  0
POLYLINE
  5
264
330
40
100
AcDbEntity
  8
LAYER_1
 62
     7
100
AcDb2dPolyline
 66
     1
 10
0.0
 20
0.0
 30
0.0
  0
VERTEX
  5
265
330
264
100
AcDbEntity
  8
LAYER_1
 62
     7
100
AcDbVertex
100
AcDb2dVertex
 10
4.406198652171001
 20
6.857263636567743
 30
0.0
  0
VERTEX
  5
266
330
264
100
AcDbEntity
  8
LAYER_1
 62
     7
100
AcDbVertex
100
AcDb2dVertex
 10
4.403757244311028
 20
6.857263636567743
 30
0.0
  0
SEQEND
  5
267
330
264
100
AcDbEntity
  8
LAYER_1
  0
POLYLINE
  5
268
330
40
100
AcDbEntity
  8
LAYER_1
 62
     7
100
AcDb2dPolyline
 66
     1
 10
0.0
 20
0.0
 30
0.0
  0
VERTEX
  5
269
330
268
100
AcDbEntity
  8
LAYER_1
 62
     7
100
AcDbVertex
100
AcDb2dVertex
 10
4.346058638553669
 20
6.906864906256192
 30
0.0
  0
VERTEX
  5
26A
330
268
100
AcDbEntity
  8
LAYER_1
 62
     7
100
AcDbVertex
100
AcDb2dVertex
 10
4.346058638553669
 20
6.907210772369687
 30
0.0
  0
SEQEND
  5
26B
330
268
100
AcDbEntity
  8
LAYER_1
  0
POLYLINE
  5
26C
330
40
100
AcDbEntity
  8
LAYER_1
 62
     7
100
AcDb2dPolyline
 66
     1
 10
0.0
 20
0.0
 30
0.0
  0
VERTEX
  5
26D
330
26C
100
AcDbEntity
  8
LAYER_1
 62
     7
100
AcDbVertex
100
AcDb2dVertex
 10
4.557810080275314
 20
6.765114053230768
 30
0.0
  0
VERTEX
  5
26E
330
26C
100
AcDbEntity
  8
LAYER_1
 62
     7
100
AcDbVertex
100
AcDb2dVertex
 10
4.478328691056198
 20
6.765114053230768
 30
0.0
  0
SEQEND
  5
26F
330
26C
100
AcDbEntity
  8
LAYER_1
  0
POLYLINE
  5
270
330
40
100
AcDbEntity
  8
LAYER_1
 62
     7
100
AcDb2dPolyline
 66
     1
 10
0.0
 20
0.0
 30
0.0
  0
VERTEX
  5
271
330
270
100
AcDbEntity
  8
LAYER_1
 62
     7
100
AcDbVertex
100
AcDb2dVertex
 10
4.557457432473319
 20
6.766870510552248
 30
0.0
  0
VERTEX
  5
272
330
270
100
AcDbEntity
  8
LAYER_1
 62
     7
100
AcDbVertex
100
AcDb2dVertex
 10
4.557457432473319
 20
6.765114053230768
 30
0.0
  0
VERTEX
  5
273
330
270
100
AcDbEntity
  8
LAYER_1
 62
     7
100
AcDbVertex
100
AcDb2dVertex
 10
4.568009739779201
 20
6.765114053230768
 30
0.0
  0
SEQEND
  5
274
330
270
100
AcDbEntity
  8
LAYER_1
  0
POLYLINE
  5
275
330
40
100
AcDbEntity
  8
LAYER_1
 62
     7
100
AcDb2dPolyline
 66
     1
 10
0.0
 20
0.0
 30
0.0
  0
VERTEX
  5
276
330
275
100
AcDbEntity
  8
LAYER_1
 62
     7
100
AcDbVertex
100
AcDb2dVertex
 10
4.560983910493279
 20
6.778121331773623
 30
0.0
  0
VERTEX
  5
277
330
275
100
AcDbEntity
  8
LAYER_1
 62
     7
100
AcDbVertex
100
AcDb2dVertex
 10
4.571875302224158
 20
6.778121331773623
 30
0.0
  0
SEQEND
  5
278
330
275
100
AcDbEntity
  8
LAYER_1
  0
POLYLINE
  5
279
330
40
100
AcDbEntity
  8
LAYER_1
 62
     7
100
AcDb2dPolyline
 66
     1
 10
0.0
 20
0.0
 30
0.0
  0
VERTEX
  5
27A
330
279
100
AcDbEntity
  8
LAYER_1
 62
     7
100
AcDbVertex
100
AcDb2dVertex
 10
4.557457432473319
 20
6.766870510552248
 30
0.0
  0
VERTEX
  5
27B
330
279
100
AcDbEntity
  8
LAYER_1
 62
     7
100
AcDbVertex
100
AcDb2dVertex
 10
4.557457432473319
 20
6.767216376665744
 30
0.0
  0
SEQEND
  5
27C
330
279
100
AcDbEntity
  8
LAYER_1
  0
POLYLINE
  5
27D
330
40
100
AcDbEntity
  8
LAYER_1
 62
     7
100
AcDb2dPolyline
 66
     1
 10
0.0
 20
0.0
 30
0.0
  0
VERTEX
  5
27E
330
27D
100
AcDbEntity
  8
LAYER_1
 62
     7
100
AcDbVertex
100
AcDb2dVertex
 10
4.403757244311028
 20
6.857263636567743
 30
0.0
  0
VERTEX
  5
27F
330
27D
100
AcDbEntity
  8
LAYER_1
 62
     7
100
AcDbVertex
100
AcDb2dVertex
 10
4.294015961005248
 20
6.857263636567743
 30
0.0
  0
SEQEND
  5
280
330
27D
100
AcDbEntity
  8
LAYER_1
  0
POLYLINE
  5
281
330
40
100
AcDbEntity
  8
LAYER_1
 62
     7
100
AcDb2dPolyline
 66
     1
 10
0.0
 20
0.0
 30
0.0
  0
VERTEX
  5
282
330
281
100
AcDbEntity
  8
LAYER_1
 62
     7
100
AcDbVertex
100
AcDb2dVertex
 10
4.458268456473421
 20
6.857263636567743
 30
0.0
  0
VERTEX
  5
283
330
281
100
AcDbEntity
  8
LAYER_1
 62
     7
100
AcDbVertex
100
AcDb2dVertex
 10
4.568009739779201
 20
6.857263636567743
 30
0.0
  0
SEQEND
  5
284
330
281
100
AcDbEntity
  8
LAYER_1
  0
POLYLINE
  5
285
330
40
100
AcDbEntity
  8
LAYER_1
 62
     7
100
AcDb2dPolyline
 66
     1
 10
0.0
 20
0.0
 30
0.0
  0
VERTEX
  5
286
330
285
100
AcDbEntity
  8
LAYER_1
 62
     7
100
AcDbVertex
100
AcDb2dVertex
 10
4.458268456473421
 20
6.857263636567743
 30
0.0
  0
VERTEX
  5
287
330
285
100
AcDbEntity
  8
LAYER_1
 62
     7
100
AcDbVertex
100
AcDb2dVertex
 10
4.455460837434453
 20
6.857263636567743
 30
0.0
  0
SEQEND
  5
288
330
285
100
AcDbEntity
  8
LAYER_1
  0
POLYLINE
  5
289
330
40
100
AcDbEntity
  8
LAYER_1
 62
     7
100
AcDb2dPolyline
 66
     1
 10
0.0
 20
0.0
 30
0.0
  0
VERTEX
  5
28A
330
289
100
AcDbEntity
  8
LAYER_1
 62
     7
100
AcDbVertex
100
AcDb2dVertex
 10
4.51595349885378
 20
6.907210772369687
 30
0.0
  0
VERTEX
  5
28B
330
289
100
AcDbEntity
  8
LAYER_1
 62
     7
100
AcDbVertex
100
AcDb2dVertex
 10
4.51595349885378
 20
6.906864906256192
 30
0.0
  0
SEQEND
  5
28C
330
289
100
AcDbEntity
  8
LAYER_1
  0
SPLINE
  5
28D
330
40
100
AcDbEntity
  8
LAYER_1
 62
     7
100
AcDbSpline
210
0.0
220
0.0
230
1.0
 70
     8
 71
     3
 72
     8
 73
     4
 74
     0
 42
0.0000000001
 43
0.0000000001
 40
0.0
 40
0.0
 40
0.0
 40
0.0
 40
1.0
 40
1.0
 40
1.0
 40
1.0
 10
4.455460837434453
 20
6.857263636567743
 30
0.0
 10
4.438805010478638
 20
6.856782136684249
 30
0.0
 10
4.422881605880815
 20
6.856795700061248
 30
0.0
 10
4.406198652171001
 20
6.857263636567743
 30
0.0
  0
POLYLINE
  5
28E
330
40
100
AcDbEntity
  8
LAYER_1
 62
     7
100
AcDb2dPolyline
 66
     1
 10
0.0
 20
0.0
 30
0.0
  0
VERTEX
  5
28F
330
28E
100
AcDbEntity
  8
LAYER_1
 62
     7
100
AcDbVertex
100
AcDb2dVertex
 10
4.410077777992957
 20
6.907210772369687
 30
0.0
  0
VERTEX
  5
290
330
28E
100
AcDbEntity
  8
LAYER_1
 62
     7
100
AcDbVertex
100
AcDb2dVertex
 10
4.451934359414492
 20
6.907210772369687
 30
0.0
  0
SEQEND
  5
291
330
28E
100
AcDbEntity
  8
LAYER_1
  0
POLYLINE
  5
292
330
40
100
AcDbEntity
  8
LAYER_1
 62
     7
100
AcDb2dPolyline
 66
     1
 10
0.0
 20
0.0
 30
0.0
  0
VERTEX
  5
293
330
292
100
AcDbEntity
  8
LAYER_1
 62
     7
100
AcDbVertex
100
AcDb2dVertex
 10
4.339385457069744
 20
6.908614581889172
 30
0.0
  0
VERTEX
  5
294
330
292
100
AcDbEntity
  8
LAYER_1
 62
     7
100
AcDbVertex
100
AcDb2dVertex
 10
4.339385457069744
 20
6.907210772369687
 30
0.0
  0
SEQEND
  5
295
330
292
100
AcDbEntity
  8
LAYER_1
  0
SPLINE
  5
296
330
40
100
AcDbEntity
  8
LAYER_1
 62
     7
100
AcDbSpline
210
0.0
220
0.0
230
1.0
 70
     8
 71
     3
 72
     8
 73
     4
 74
     0
 42
0.0000000001
 43
0.0000000001
 40
0.0
 40
0.0
 40
0.0
 40
0.0
 40
1.0
 40
1.0
 40
1.0
 40
1.0
 10
4.301055353668169
 20
6.778121331773623
 30
0.0
 10
4.387833839713204
 20
6.777314310842132
 30
0.0
 10
4.474205424448244
 20
6.777314310842132
 30
0.0
 10
4.560983910493279
 20
6.778121331773623
 30
0.0
  0
POLYLINE
  5
297
330
40
100
AcDbEntity
  8
LAYER_1
 62
     7
100
AcDb2dPolyline
 66
     1
 10
0.0
 20
0.0
 30
0.0
  0
VERTEX
  5
298
330
297
100
AcDbEntity
  8
LAYER_1
 62
     7
100
AcDbVertex
100
AcDb2dVertex
 10
4.557457432473319
 20
6.767216376665744
 30
0.0
  0
VERTEX
  5
299
330
297
100
AcDbEntity
  8
LAYER_1
 62
     7
100
AcDbVertex
100
AcDb2dVertex
 10
4.560983910493279
 20
6.778121331773623
 30
0.0
  0
SEQEND
  5
29A
330
297
100
AcDbEntity
  8
LAYER_1
  0
POLYLINE
  5
29B
330
40
100
AcDbEntity
  8
LAYER_1
 62
     7
100
AcDb2dPolyline
 66
     1
 10
0.0
 20
0.0
 30
0.0
  0
VERTEX
  5
29C
330
29B
100
AcDbEntity
  8
LAYER_1
 62
     7
100
AcDbVertex
100
AcDb2dVertex
 10
4.522626680337706
 20
6.713756326220839
 30
0.0
  0
VERTEX
  5
29D
330
29B
100
AcDbEntity
  8
LAYER_1
 62
     7
100
AcDbVertex
100
AcDb2dVertex
 10
4.522626680337706
 20
6.713410460107343
 30
0.0
  0
VERTEX
  5
29E
330
29B
100
AcDbEntity
  8
LAYER_1
 62
     7
100
AcDbVertex
100
AcDb2dVertex
 10
4.522301159289709
 20
6.713410460107343
 30
0.0
  0
VERTEX
  5
29F
330
29B
100
AcDbEntity
  8
LAYER_1
 62
     7
100
AcDbVertex
100
AcDb2dVertex
 10
4.522301159289709
 20
6.713044248928347
 30
0.0
  0
VERTEX
  5
2A0
330
29B
100
AcDbEntity
  8
LAYER_1
 62
     7
100
AcDbVertex
100
AcDb2dVertex
 10
4.521948511487714
 20
6.713044248928347
 30
0.0
  0
SEQEND
  5
2A1
330
29B
100
AcDbEntity
  8
LAYER_1
  0
POLYLINE
  5
2A2
330
40
100
AcDbEntity
  8
LAYER_1
 62
     7
100
AcDb2dPolyline
 66
     1
 10
0.0
 20
0.0
 30
0.0
  0
VERTEX
  5
2A3
330
2A2
100
AcDbEntity
  8
LAYER_1
 62
     7
100
AcDbVertex
100
AcDb2dVertex
 10
4.339738104871739
 20
6.909326659181664
 30
0.0
  0
VERTEX
  5
2A4
330
2A2
100
AcDbEntity
  8
LAYER_1
 62
     7
100
AcDbVertex
100
AcDb2dVertex
 10
4.339738104871739
 20
6.908967229691168
 30
0.0
  0
VERTEX
  5
2A5
330
2A2
100
AcDbEntity
  8
LAYER_1
 62
     7
100
AcDbVertex
100
AcDb2dVertex
 10
4.339385457069744
 20
6.908967229691168
 30
0.0
  0
VERTEX
  5
2A6
330
2A2
100
AcDbEntity
  8
LAYER_1
 62
     7
100
AcDbVertex
100
AcDb2dVertex
 10
4.339385457069744
 20
6.908614581889172
 30
0.0
  0
SEQEND
  5
2A7
330
2A2
100
AcDbEntity
  8
LAYER_1
  0
SPLINE
  5
2A8
330
40
100
AcDbEntity
  8
LAYER_1
 62
     7
100
AcDbSpline
210
0.0
220
0.0
230
1.0
 70
     8
 71
     3
 72
     8
 73
     4
 74
     0
 42
0.0000000001
 43
0.0000000001
 40
0.0
 40
0.0
 40
0.0
 40
0.0
 40
1.0
 40
1.0
 40
1.0
 40
1.0
 10
4.571875302224158
 20
6.843890146845892
 30
0.0
 10
4.481597464913162
 20
6.844649695957884
 30
0.0
 10
4.391319627602166
 20
6.845205794414877
 30
0.0
 10
4.301055353668169
 20
6.843890146845892
 30
0.0
  0
POLYLINE
  5
2A9
330
40
100
AcDbEntity
  8
LAYER_1
 62
     7
100
AcDb2dPolyline
 66
     1
 10
0.0
 20
0.0
 30
0.0
  0
VERTEX
  5
2AA
330
2A9
100
AcDbEntity
  8
LAYER_1
 62
     7
100
AcDbVertex
100
AcDb2dVertex
 10
4.295765636638229
 20
6.818214674185177
 30
0.0
  0
VERTEX
  5
2AB
330
2A9
100
AcDbEntity
  8
LAYER_1
 62
     7
100
AcDbVertex
100
AcDb2dVertex
 10
4.296118284440225
 20
6.818214674185177
 30
0.0
  0
VERTEX
  5
2AC
330
2A9
100
AcDbEntity
  8
LAYER_1
 62
     7
100
AcDbVertex
100
AcDb2dVertex
 10
4.296118284440225
 20
6.817170294156189
 30
0.0
  0
VERTEX
  5
2AD
330
2A9
100
AcDbEntity
  8
LAYER_1
 62
     7
100
AcDbVertex
100
AcDb2dVertex
 10
4.296470932242221
 20
6.817170294156189
 30
0.0
  0
VERTEX
  5
2AE
330
2A9
100
AcDbEntity
  8
LAYER_1
 62
     7
100
AcDbVertex
100
AcDb2dVertex
 10
4.296470932242221
 20
6.806617986850307
 30
0.0
  0
VERTEX
  5
2AF
330
2A9
100
AcDbEntity
  8
LAYER_1
 62
     7
100
AcDbVertex
100
AcDb2dVertex
 10
4.296470932242221
 20
6.805207395642322
 30
0.0
  0
VERTEX
  5
2B0
330
2A9
100
AcDbEntity
  8
LAYER_1
 62
     7
100
AcDbVertex
100
AcDb2dVertex
 10
4.296118284440225
 20
6.804868311217326
 30
0.0
  0
VERTEX
  5
2B1
330
2A9
100
AcDbEntity
  8
LAYER_1
 62
     7
100
AcDbVertex
100
AcDb2dVertex
 10
4.296118284440225
 20
6.804149452236333
 30
0.0
  0
VERTEX
  5
2B2
330
2A9
100
AcDbEntity
  8
LAYER_1
 62
     7
100
AcDbVertex
100
AcDb2dVertex
 10
4.295765636638229
 20
6.804149452236333
 30
0.0
  0
SEQEND
  5
2B3
330
2A9
100
AcDbEntity
  8
LAYER_1
  0
SPLINE
  5
2B4
330
40
100
AcDbEntity
  8
LAYER_1
 62
     7
100
AcDbSpline
210
0.0
220
0.0
230
1.0
 70
     8
 71
     3
 72
     8
 73
     4
 74
     0
 42
0.0000000001
 43
0.0000000001
 40
0.0
 40
0.0
 40
0.0
 40
0.0
 40
1.0
 40
1.0
 40
1.0
 40
1.0
 10
4.589127917767966
 20
6.842140471212911
 30
0.0
 10
4.615969840850668
 20
6.833405656425009
 30
0.0
 10
4.615942714096668
 20
6.788938124931003
 30
0.0
 10
4.589127917767966
 20
6.779884570783604
 30
0.0
  0
POLYLINE
  5
2B5
330
40
100
AcDbEntity
  8
LAYER_1
 62
     7
100
AcDb2dPolyline
 66
     1
 10
0.0
 20
0.0
 30
0.0
  0
VERTEX
  5
2B6
330
2B5
100
AcDbEntity
  8
LAYER_1
 62
     7
100
AcDbVertex
100
AcDb2dVertex
 10
4.574682921263126
 20
6.843890146845892
 30
0.0
  0
VERTEX
  5
2B7
330
2B5
100
AcDbEntity
  8
LAYER_1
 62
     7
100
AcDbVertex
100
AcDb2dVertex
 10
4.571875302224158
 20
6.843890146845892
 30
0.0
  0
SEQEND
  5
2B8
330
2B5
100
AcDbEntity
  8
LAYER_1
  0
POLYLINE
  5
2B9
330
40
100
AcDbEntity
  8
LAYER_1
 62
     7
100
AcDb2dPolyline
 66
     1
 10
0.0
 20
0.0
 30
0.0
  0
VERTEX
  5
2BA
330
2B9
100
AcDbEntity
  8
LAYER_1
 62
     7
100
AcDbVertex
100
AcDb2dVertex
 10
4.571875302224158
 20
6.778121331773623
 30
0.0
  0
VERTEX
  5
2BB
330
2B9
100
AcDbEntity
  8
LAYER_1
 62
     7
100
AcDbVertex
100
AcDb2dVertex
 10
4.574682921263126
 20
6.778121331773623
 30
0.0
  0
SEQEND
  5
2BC
330
2B9
100
AcDbEntity
  8
LAYER_1
  0
POLYLINE
  5
2BD
330
40
100
AcDbEntity
  8
LAYER_1
 62
     7
100
AcDb2dPolyline
 66
     1
 10
0.0
 20
0.0
 30
0.0
  0
VERTEX
  5
2BE
330
2BD
100
AcDbEntity
  8
LAYER_1
 62
     7
100
AcDbVertex
100
AcDb2dVertex
 10
4.410077777992957
 20
6.907210772369687
 30
0.0
  0
VERTEX
  5
2BF
330
2BD
100
AcDbEntity
  8
LAYER_1
 62
     7
100
AcDbVertex
100
AcDb2dVertex
 10
4.322851700506927
 20
6.907210772369687
 30
0.0
  0
SEQEND
  5
2C0
330
2BD
100
AcDbEntity
  8
LAYER_1
  0
POLYLINE
  5
2C1
330
40
100
AcDbEntity
  8
LAYER_1
 62
     7
100
AcDb2dPolyline
 66
     1
 10
0.0
 20
0.0
 30
0.0
  0
VERTEX
  5
2C2
330
2C1
100
AcDbEntity
  8
LAYER_1
 62
     7
100
AcDbVertex
100
AcDb2dVertex
 10
4.522626680337706
 20
6.907210772369687
 30
0.0
  0
VERTEX
  5
2C3
330
2C1
100
AcDbEntity
  8
LAYER_1
 62
     7
100
AcDbVertex
100
AcDb2dVertex
 10
4.451934359414492
 20
6.907210772369687
 30
0.0
  0
SEQEND
  5
2C4
330
2C1
100
AcDbEntity
  8
LAYER_1
  0
POLYLINE
  5
2C5
330
40
100
AcDbEntity
  8
LAYER_1
 62
     7
100
AcDb2dPolyline
 66
     1
 10
0.0
 20
0.0
 30
0.0
  0
VERTEX
  5
2C6
330
2C5
100
AcDbEntity
  8
LAYER_1
 62
     7
100
AcDbVertex
100
AcDb2dVertex
 10
4.522626680337706
 20
6.908614581889172
 30
0.0
  0
VERTEX
  5
2C7
330
2C5
100
AcDbEntity
  8
LAYER_1
 62
     7
100
AcDbVertex
100
AcDb2dVertex
 10
4.522626680337706
 20
6.907210772369687
 30
0.0
  0
VERTEX
  5
2C8
330
2C5
100
AcDbEntity
  8
LAYER_1
 62
     7
100
AcDbVertex
100
AcDb2dVertex
 10
4.539174000277522
 20
6.907210772369687
 30
0.0
  0
SEQEND
  5
2C9
330
2C5
100
AcDbEntity
  8
LAYER_1
  0
POLYLINE
  5
2CA
330
40
100
AcDbEntity
  8
LAYER_1
 62
     7
100
AcDb2dPolyline
 66
     1
 10
0.0
 20
0.0
 30
0.0
  0
VERTEX
  5
2CB
330
2CA
100
AcDbEntity
  8
LAYER_1
 62
     7
100
AcDbVertex
100
AcDb2dVertex
 10
4.522626680337706
 20
6.908614581889172
 30
0.0
  0
VERTEX
  5
2CC
330
2CA
100
AcDbEntity
  8
LAYER_1
 62
     7
100
AcDbVertex
100
AcDb2dVertex
 10
4.522301159289709
 20
6.908967229691168
 30
0.0
  0
VERTEX
  5
2CD
330
2CA
100
AcDbEntity
  8
LAYER_1
 62
     7
100
AcDbVertex
100
AcDb2dVertex
 10
4.522301159289709
 20
6.909326659181664
 30
0.0
  0
VERTEX
  5
2CE
330
2CA
100
AcDbEntity
  8
LAYER_1
 62
     7
100
AcDbVertex
100
AcDb2dVertex
 10
4.521948511487714
 20
6.909326659181664
 30
0.0
  0
SEQEND
  5
2CF
330
2CA
100
AcDbEntity
  8
LAYER_1
  0
POLYLINE
  5
2D0
330
40
100
AcDbEntity
  8
LAYER_1
 62
     7
100
AcDb2dPolyline
 66
     1
 10
0.0
 20
0.0
 30
0.0
  0
VERTEX
  5
2D1
330
2D0
100
AcDbEntity
  8
LAYER_1
 62
     7
100
AcDbVertex
100
AcDb2dVertex
 10
4.292252721995268
 20
6.778121331773623
 30
0.0
  0
VERTEX
  5
2D2
330
2D0
100
AcDbEntity
  8
LAYER_1
 62
     7
100
AcDbVertex
100
AcDb2dVertex
 10
4.291900074193271
 20
6.778121331773623
 30
0.0
  0
VERTEX
  5
2D3
330
2D0
100
AcDbEntity
  8
LAYER_1
 62
     7
100
AcDbVertex
100
AcDb2dVertex
 10
4.291900074193271
 20
6.778480761264119
 30
0.0
  0
VERTEX
  5
2D4
330
2D0
100
AcDbEntity
  8
LAYER_1
 62
     7
100
AcDbVertex
100
AcDb2dVertex
 10
4.290855694164283
 20
6.778480761264119
 30
0.0
  0
VERTEX
  5
2D5
330
2D0
100
AcDbEntity
  8
LAYER_1
 62
     7
100
AcDbVertex
100
AcDb2dVertex
 10
4.290855694164283
 20
6.778833409066116
 30
0.0
  0
VERTEX
  5
2D6
330
2D0
100
AcDbEntity
  8
LAYER_1
 62
     7
100
AcDbVertex
100
AcDb2dVertex
 10
4.290475919608287
 20
6.778833409066116
 30
0.0
  0
VERTEX
  5
2D7
330
2D0
100
AcDbEntity
  8
LAYER_1
 62
     7
100
AcDbVertex
100
AcDb2dVertex
 10
4.290475919608287
 20
6.779179275179612
 30
0.0
  0
VERTEX
  5
2D8
330
2D0
100
AcDbEntity
  8
LAYER_1
 62
     7
100
AcDbVertex
100
AcDb2dVertex
 10
4.290150398560291
 20
6.779179275179612
 30
0.0
  0
VERTEX
  5
2D9
330
2D0
100
AcDbEntity
  8
LAYER_1
 62
     7
100
AcDbVertex
100
AcDb2dVertex
 10
4.290150398560291
 20
6.779518359604608
 30
0.0
  0
VERTEX
  5
2DA
330
2D0
100
AcDbEntity
  8
LAYER_1
 62
     7
100
AcDbVertex
100
AcDb2dVertex
 10
4.289770624004295
 20
6.779518359604608
 30
0.0
  0
VERTEX
  5
2DB
330
2D0
100
AcDbEntity
  8
LAYER_1
 62
     7
100
AcDbVertex
100
AcDb2dVertex
 10
4.289770624004295
 20
6.780230436897099
 30
0.0
  0
SEQEND
  5
2DC
330
2D0
100
AcDbEntity
  8
LAYER_1
  0
POLYLINE
  5
2DD
330
40
100
AcDbEntity
  8
LAYER_1
 62
     7
100
AcDb2dPolyline
 66
     1
 10
0.0
 20
0.0
 30
0.0
  0
VERTEX
  5
2DE
330
2DD
100
AcDbEntity
  8
LAYER_1
 62
     7
100
AcDbVertex
100
AcDb2dVertex
 10
4.292252721995268
 20
6.778121331773623
 30
0.0
  0
VERTEX
  5
2DF
330
2DD
100
AcDbEntity
  8
LAYER_1
 62
     7
100
AcDbVertex
100
AcDb2dVertex
 10
4.301055353668169
 20
6.778121331773623
 30
0.0
  0
SEQEND
  5
2E0
330
2DD
100
AcDbEntity
  8
LAYER_1
  0
SPLINE
  5
2E1
330
40
100
AcDbEntity
  8
LAYER_1
 62
     7
100
AcDbSpline
210
0.0
220
0.0
230
1.0
 70
     8
 71
     3
 72
     8
 73
     4
 74
     0
 42
0.0000000001
 43
0.0000000001
 40
0.0
 40
0.0
 40
0.0
 40
0.0
 40
1.0
 40
1.0
 40
1.0
 40
1.0
 10
4.301055353668169
 20
6.778121331773623
 30
0.0
 10
4.32614760111789
 20
6.679827538655716
 30
0.0
 10
4.447973853330536
 20
6.643721829082118
 30
0.0
 10
4.521948511487714
 20
6.713044248928347
 30
0.0
  0
POLYLINE
  5
2E2
330
40
100
AcDbEntity
  8
LAYER_1
 62
     7
100
AcDb2dPolyline
 66
     1
 10
0.0
 20
0.0
 30
0.0
  0
VERTEX
  5
2E3
330
2E2
100
AcDbEntity
  8
LAYER_1
 62
     7
100
AcDbVertex
100
AcDb2dVertex
 10
4.301055353668169
 20
6.843890146845892
 30
0.0
  0
VERTEX
  5
2E4
330
2E2
100
AcDbEntity
  8
LAYER_1
 62
     7
100
AcDbVertex
100
AcDb2dVertex
 10
4.292252721995268
 20
6.843890146845892
 30
0.0
  0
SEQEND
  5
2E5
330
2E2
100
AcDbEntity
  8
LAYER_1
  0
POLYLINE
  5
2E6
330
40
100
AcDbEntity
  8
LAYER_1
 62
     7
100
AcDb2dPolyline
 66
     1
 10
0.0
 20
0.0
 30
0.0
  0
VERTEX
  5
2E7
330
2E6
100
AcDbEntity
  8
LAYER_1
 62
     7
100
AcDbVertex
100
AcDb2dVertex
 10
4.289770624004295
 20
6.842140471212911
 30
0.0
  0
VERTEX
  5
2E8
330
2E6
100
AcDbEntity
  8
LAYER_1
 62
     7
100
AcDbVertex
100
AcDb2dVertex
 10
4.289770624004295
 20
6.842486337326408
 30
0.0
  0
VERTEX
  5
2E9
330
2E6
100
AcDbEntity
  8
LAYER_1
 62
     7
100
AcDbVertex
100
AcDb2dVertex
 10
4.290150398560291
 20
6.842486337326408
 30
0.0
  0
VERTEX
  5
2EA
330
2E6
100
AcDbEntity
  8
LAYER_1
 62
     7
100
AcDbVertex
100
AcDb2dVertex
 10
4.290150398560291
 20
6.843198414618899
 30
0.0
  0
VERTEX
  5
2EB
330
2E6
100
AcDbEntity
  8
LAYER_1
 62
     7
100
AcDbVertex
100
AcDb2dVertex
 10
4.290475919608287
 20
6.843198414618899
 30
0.0
  0
VERTEX
  5
2EC
330
2E6
100
AcDbEntity
  8
LAYER_1
 62
     7
100
AcDbVertex
100
AcDb2dVertex
 10
4.290855694164283
 20
6.843557844109395
 30
0.0
  0
VERTEX
  5
2ED
330
2E6
100
AcDbEntity
  8
LAYER_1
 62
     7
100
AcDbVertex
100
AcDb2dVertex
 10
4.291208341966279
 20
6.843557844109395
 30
0.0
  0
VERTEX
  5
2EE
330
2E6
100
AcDbEntity
  8
LAYER_1
 62
     7
100
AcDbVertex
100
AcDb2dVertex
 10
4.291208341966279
 20
6.843890146845892
 30
0.0
  0
VERTEX
  5
2EF
330
2E6
100
AcDbEntity
  8
LAYER_1
 62
     7
100
AcDbVertex
100
AcDb2dVertex
 10
4.292252721995268
 20
6.843890146845892
 30
0.0
  0
SEQEND
  5
2F0
330
2E6
100
AcDbEntity
  8
LAYER_1
  0
SPLINE
  5
2F1
330
40
100
AcDbEntity
  8
LAYER_1
 62
     7
100
AcDbSpline
210
0.0
220
0.0
230
1.0
 70
     8
 71
     3
 72
     8
 73
     4
 74
     0
 42
0.0000000001
 43
0.0000000001
 40
0.0
 40
0.0
 40
0.0
 40
0.0
 40
1.0
 40
1.0
 40
1.0
 40
1.0
 10
4.521948511487714
 20
6.909326659181664
 30
0.0
 10
4.471085847738279
 20
6.957090091286633
 30
0.0
 10
4.390736402391172
 20
6.956751006861637
 30
0.0
 10
4.339738104871739
 20
6.909326659181664
 30
0.0
  0
POLYLINE
  5
2F2
330
40
100
AcDbEntity
  8
LAYER_1
 62
     7
100
AcDb2dPolyline
 66
     1
 10
0.0
 20
0.0
 30
0.0
  0
VERTEX
  5
2F3
330
2F2
100
AcDbEntity
  8
LAYER_1
 62
     7
100
AcDbVertex
100
AcDb2dVertex
 10
4.289770624004295
 20
6.842140471212911
 30
0.0
  0
VERTEX
  5
2F4
330
2F2
100
AcDbEntity
  8
LAYER_1
 62
     7
100
AcDbVertex
100
AcDb2dVertex
 10
4.287329216144323
 20
6.826657876367584
 30
0.0
  0
VERTEX
  5
2F5
330
2F2
100
AcDbEntity
  8
LAYER_1
 62
     7
100
AcDbVertex
100
AcDb2dVertex
 10
4.286271272738334
 20
6.811182063210755
 30
0.0
  0
SEQEND
  5
2F6
330
2F2
100
AcDbEntity
  8
LAYER_1
  0
POLYLINE
  5
2F7
330
40
100
AcDbEntity
  8
LAYER_1
 62
     7
100
AcDb2dPolyline
 66
     1
 10
0.0
 20
0.0
 30
0.0
  0
VERTEX
  5
2F8
330
2F7
100
AcDbEntity
  8
LAYER_1
 62
     7
100
AcDbVertex
100
AcDb2dVertex
 10
4.286271272738334
 20
6.811182063210755
 30
0.0
  0
VERTEX
  5
2F9
330
2F7
100
AcDbEntity
  8
LAYER_1
 62
     7
100
AcDbVertex
100
AcDb2dVertex
 10
4.287329216144323
 20
6.795713031742427
 30
0.0
  0
VERTEX
  5
2FA
330
2F7
100
AcDbEntity
  8
LAYER_1
 62
     7
100
AcDbVertex
100
AcDb2dVertex
 10
4.289770624004295
 20
6.780230436897099
 30
0.0
  0
SEQEND
  5
2FB
330
2F7
100
AcDbEntity
  8
LAYER_1
  0
POLYLINE
  5
2FC
330
40
100
AcDbEntity
  8
LAYER_1
 62
     7
100
AcDb2dPolyline
 66
     1
 10
0.0
 20
0.0
 30
0.0
  0
VERTEX
  5
2FD
330
2FC
100
AcDbEntity
  8
LAYER_1
 62
     7
100
AcDbVertex
100
AcDb2dVertex
 10
4.289770624004295
 20
6.780230436897099
 30
0.0
  0
VERTEX
  5
2FE
330
2FC
100
AcDbEntity
  8
LAYER_1
 62
     7
100
AcDbVertex
100
AcDb2dVertex
 10
4.290150398560291
 20
6.780230436897099
 30
0.0
  0
SEQEND
  5
2FF
330
2FC
100
AcDbEntity
  8
LAYER_1
  0
SPLINE
  5
300
330
40
100
AcDbEntity
  8
LAYER_1
 62
     7
100
AcDbSpline
210
0.0
220
0.0
230
1.0
 70
     8
 71
     3
 72
     8
 73
     4
 74
     0
 42
0.0000000001
 43
0.0000000001
 40
0.0
 40
0.0
 40
0.0
 40
0.0
 40
1.0
 40
1.0
 40
1.0
 40
1.0
 10
4.289770624004295
 20
6.780230436897099
 30
0.0
 10
4.315378279780011
 20
6.665870823722871
 30
0.0
 10
4.457088442674435
 20
6.627662790714297
 30
0.0
 10
4.537058113465545
 20
6.713044248928347
 30
0.0
  0
POLYLINE
  5
301
330
40
100
AcDbEntity
  8
LAYER_1
 62
     7
100
AcDb2dPolyline
 66
     1
 10
0.0
 20
0.0
 30
0.0
  0
VERTEX
  5
302
330
301
100
AcDbEntity
  8
LAYER_1
 62
     7
100
AcDbVertex
100
AcDb2dVertex
 10
4.539174000277522
 20
6.715173699117323
 30
0.0
  0
VERTEX
  5
303
330
301
100
AcDbEntity
  8
LAYER_1
 62
     7
100
AcDbVertex
100
AcDb2dVertex
 10
4.538821352475526
 20
6.715173699117323
 30
0.0
  0
VERTEX
  5
304
330
301
100
AcDbEntity
  8
LAYER_1
 62
     7
100
AcDbVertex
100
AcDb2dVertex
 10
4.538821352475526
 20
6.714807487938327
 30
0.0
  0
VERTEX
  5
305
330
301
100
AcDbEntity
  8
LAYER_1
 62
     7
100
AcDbVertex
100
AcDb2dVertex
 10
4.53845514129653
 20
6.714807487938327
 30
0.0
  0
VERTEX
  5
306
330
301
100
AcDbEntity
  8
LAYER_1
 62
     7
100
AcDbVertex
100
AcDb2dVertex
 10
4.53845514129653
 20
6.714461621824831
 30
0.0
  0
VERTEX
  5
307
330
301
100
AcDbEntity
  8
LAYER_1
 62
     7
100
AcDbVertex
100
AcDb2dVertex
 10
4.537058113465545
 20
6.713044248928347
 30
0.0
  0
SEQEND
  5
308
330
301
100
AcDbEntity
  8
LAYER_1
  0
POLYLINE
  5
309
330
40
100
AcDbEntity
  8
LAYER_1
 62
     7
100
AcDb2dPolyline
 66
     1
 10
0.0
 20
0.0
 30
0.0
  0
VERTEX
  5
30A
330
309
100
AcDbEntity
  8
LAYER_1
 62
     7
100
AcDbVertex
100
AcDb2dVertex
 10
4.289770624004295
 20
6.842140471212911
 30
0.0
  0
VERTEX
  5
30B
330
309
100
AcDbEntity
  8
LAYER_1
 62
     7
100
AcDbVertex
100
AcDb2dVertex
 10
4.293297102024256
 20
6.855507179246263
 30
0.0
  0
VERTEX
  5
30C
330
309
100
AcDbEntity
  8
LAYER_1
 62
     7
100
AcDbVertex
100
AcDb2dVertex
 10
4.293663313203252
 20
6.855853045359759
 30
0.0
  0
VERTEX
  5
30D
330
309
100
AcDbEntity
  8
LAYER_1
 62
     7
100
AcDbVertex
100
AcDb2dVertex
 10
4.293663313203252
 20
6.856565122652251
 30
0.0
  0
VERTEX
  5
30E
330
309
100
AcDbEntity
  8
LAYER_1
 62
     7
100
AcDbVertex
100
AcDb2dVertex
 10
4.294015961005248
 20
6.856910988765747
 30
0.0
  0
VERTEX
  5
30F
330
309
100
AcDbEntity
  8
LAYER_1
 62
     7
100
AcDbVertex
100
AcDb2dVertex
 10
4.294015961005248
 20
6.857263636567743
 30
0.0
  0
SEQEND
  5
310
330
309
100
AcDbEntity
  8
LAYER_1
  0
POLYLINE
  5
311
330
40
100
AcDbEntity
  8
LAYER_1
 62
     7
100
AcDb2dPolyline
 66
     1
 10
0.0
 20
0.0
 30
0.0
  0
VERTEX
  5
312
330
311
100
AcDbEntity
  8
LAYER_1
 62
     7
100
AcDbVertex
100
AcDb2dVertex
 10
4.568715035383193
 20
6.766870510552248
 30
0.0
  0
VERTEX
  5
313
330
311
100
AcDbEntity
  8
LAYER_1
 62
     7
100
AcDbVertex
100
AcDb2dVertex
 10
4.571875302224158
 20
6.778121331773623
 30
0.0
  0
SEQEND
  5
314
330
311
100
AcDbEntity
  8
LAYER_1
  0
POLYLINE
  5
315
330
40
100
AcDbEntity
  8
LAYER_1
 62
     7
100
AcDb2dPolyline
 66
     1
 10
0.0
 20
0.0
 30
0.0
  0
VERTEX
  5
316
330
315
100
AcDbEntity
  8
LAYER_1
 62
     7
100
AcDbVertex
100
AcDb2dVertex
 10
4.568715035383193
 20
6.766870510552248
 30
0.0
  0
VERTEX
  5
317
330
315
100
AcDbEntity
  8
LAYER_1
 62
     7
100
AcDbVertex
100
AcDb2dVertex
 10
4.568389514335196
 20
6.766870510552248
 30
0.0
  0
VERTEX
  5
318
330
315
100
AcDbEntity
  8
LAYER_1
 62
     7
100
AcDbVertex
100
AcDb2dVertex
 10
4.568389514335196
 20
6.76581934883476
 30
0.0
  0
VERTEX
  5
319
330
315
100
AcDbEntity
  8
LAYER_1
 62
     7
100
AcDbVertex
100
AcDb2dVertex
 10
4.568009739779201
 20
6.76581934883476
 30
0.0
  0
VERTEX
  5
31A
330
315
100
AcDbEntity
  8
LAYER_1
 62
     7
100
AcDbVertex
100
AcDb2dVertex
 10
4.568009739779201
 20
6.765114053230768
 30
0.0
  0
SEQEND
  5
31B
330
315
100
AcDbEntity
  8
LAYER_1
  0
POLYLINE
  5
31C
330
40
100
AcDbEntity
  8
LAYER_1
 62
     7
100
AcDb2dPolyline
 66
     1
 10
0.0
 20
0.0
 30
0.0
  0
VERTEX
  5
31D
330
31C
100
AcDbEntity
  8
LAYER_1
 62
     7
100
AcDbVertex
100
AcDb2dVertex
 10
4.568009739779201
 20
6.857263636567743
 30
0.0
  0
VERTEX
  5
31E
330
31C
100
AcDbEntity
  8
LAYER_1
 62
     7
100
AcDbVertex
100
AcDb2dVertex
 10
4.568009739779201
 20
6.856565122652251
 30
0.0
  0
VERTEX
  5
31F
330
31C
100
AcDbEntity
  8
LAYER_1
 62
     7
100
AcDbVertex
100
AcDb2dVertex
 10
4.568389514335196
 20
6.856565122652251
 30
0.0
  0
VERTEX
  5
320
330
31C
100
AcDbEntity
  8
LAYER_1
 62
     7
100
AcDbVertex
100
AcDb2dVertex
 10
4.568389514335196
 20
6.855507179246263
 30
0.0
  0
VERTEX
  5
321
330
31C
100
AcDbEntity
  8
LAYER_1
 62
     7
100
AcDbVertex
100
AcDb2dVertex
 10
4.568715035383193
 20
6.855147749755766
 30
0.0
  0
VERTEX
  5
322
330
31C
100
AcDbEntity
  8
LAYER_1
 62
     7
100
AcDbVertex
100
AcDb2dVertex
 10
4.571875302224158
 20
6.843890146845892
 30
0.0
  0
SEQEND
  5
323
330
31C
100
AcDbEntity
  8
LAYER_1
  0
SPLINE
  5
324
330
40
100
AcDbEntity
  8
LAYER_1
 62
     7
100
AcDbSpline
210
0.0
220
0.0
230
1.0
 70
     8
 71
     3
 72
     8
 73
     4
 74
     0
 42
0.0000000001
 43
0.0000000001
 40
0.0
 40
0.0
 40
0.0
 40
0.0
 40
1.0
 40
1.0
 40
1.0
 40
1.0
 10
4.537058113465545
 20
6.909326659181664
 30
0.0
 10
4.479657902002184
 20
6.970992552711478
 30
0.0
 10
4.382055841111269
 20
6.970958644268979
 30
0.0
 10
4.324954023941904
 20
6.909326659181664
 30
0.0
  0
POLYLINE
  5
325
330
40
100
AcDbEntity
  8
LAYER_1
 62
     7
100
AcDb2dPolyline
 66
     1
 10
0.0
 20
0.0
 30
0.0
  0
VERTEX
  5
326
330
325
100
AcDbEntity
  8
LAYER_1
 62
     7
100
AcDbVertex
100
AcDb2dVertex
 10
4.322851700506927
 20
6.907210772369687
 30
0.0
  0
VERTEX
  5
327
330
325
100
AcDbEntity
  8
LAYER_1
 62
     7
100
AcDbVertex
100
AcDb2dVertex
 10
4.323190784931923
 20
6.907210772369687
 30
0.0
  0
VERTEX
  5
328
330
325
100
AcDbEntity
  8
LAYER_1
 62
     7
100
AcDbVertex
100
AcDb2dVertex
 10
4.323190784931923
 20
6.907563420171684
 30
0.0
  0
VERTEX
  5
329
330
325
100
AcDbEntity
  8
LAYER_1
 62
     7
100
AcDbVertex
100
AcDb2dVertex
 10
4.323556996110919
 20
6.907563420171684
 30
0.0
  0
VERTEX
  5
32A
330
325
100
AcDbEntity
  8
LAYER_1
 62
     7
100
AcDbVertex
100
AcDb2dVertex
 10
4.323556996110919
 20
6.90790928628518
 30
0.0
  0
VERTEX
  5
32B
330
325
100
AcDbEntity
  8
LAYER_1
 62
     7
100
AcDbVertex
100
AcDb2dVertex
 10
4.323923207289916
 20
6.90790928628518
 30
0.0
  0
VERTEX
  5
32C
330
325
100
AcDbEntity
  8
LAYER_1
 62
     7
100
AcDbVertex
100
AcDb2dVertex
 10
4.323923207289916
 20
6.908268715775676
 30
0.0
  0
VERTEX
  5
32D
330
325
100
AcDbEntity
  8
LAYER_1
 62
     7
100
AcDbVertex
100
AcDb2dVertex
 10
4.324262291714912
 20
6.908268715775676
 30
0.0
  0
VERTEX
  5
32E
330
325
100
AcDbEntity
  8
LAYER_1
 62
     7
100
AcDbVertex
100
AcDb2dVertex
 10
4.324262291714912
 20
6.908614581889172
 30
0.0
  0
VERTEX
  5
32F
330
325
100
AcDbEntity
  8
LAYER_1
 62
     7
100
AcDbVertex
100
AcDb2dVertex
 10
4.324954023941904
 20
6.909326659181664
 30
0.0
  0
SEQEND
  5
330
330
325
100
AcDbEntity
  8
LAYER_1
  0
POLYLINE
  5
331
330
40
100
AcDbEntity
  8
LAYER_1
 62
     7
100
AcDb2dPolyline
 66
     1
 10
0.0
 20
0.0
 30
0.0
  0
VERTEX
  5
332
330
331
100
AcDbEntity
  8
LAYER_1
 62
     7
100
AcDbVertex
100
AcDb2dVertex
 10
4.537058113465545
 20
6.909326659181664
 30
0.0
  0
VERTEX
  5
333
330
331
100
AcDbEntity
  8
LAYER_1
 62
     7
100
AcDbVertex
100
AcDb2dVertex
 10
4.537058113465545
 20
6.908967229691168
 30
0.0
  0
VERTEX
  5
334
330
331
100
AcDbEntity
  8
LAYER_1
 62
     7
100
AcDbVertex
100
AcDb2dVertex
 10
4.537410761267541
 20
6.908967229691168
 30
0.0
  0
VERTEX
  5
335
330
331
100
AcDbEntity
  8
LAYER_1
 62
     7
100
AcDbVertex
100
AcDb2dVertex
 10
4.537410761267541
 20
6.908614581889172
 30
0.0
  0
VERTEX
  5
336
330
331
100
AcDbEntity
  8
LAYER_1
 62
     7
100
AcDbVertex
100
AcDb2dVertex
 10
4.537790535823537
 20
6.908614581889172
 30
0.0
  0
VERTEX
  5
337
330
331
100
AcDbEntity
  8
LAYER_1
 62
     7
100
AcDbVertex
100
AcDb2dVertex
 10
4.537790535823537
 20
6.908268715775676
 30
0.0
  0
VERTEX
  5
338
330
331
100
AcDbEntity
  8
LAYER_1
 62
     7
100
AcDbVertex
100
AcDb2dVertex
 10
4.538116056871534
 20
6.908268715775676
 30
0.0
  0
VERTEX
  5
339
330
331
100
AcDbEntity
  8
LAYER_1
 62
     7
100
AcDbVertex
100
AcDb2dVertex
 10
4.538116056871534
 20
6.90790928628518
 30
0.0
  0
VERTEX
  5
33A
330
331
100
AcDbEntity
  8
LAYER_1
 62
     7
100
AcDbVertex
100
AcDb2dVertex
 10
4.53845514129653
 20
6.90790928628518
 30
0.0
  0
VERTEX
  5
33B
330
331
100
AcDbEntity
  8
LAYER_1
 62
     7
100
AcDbVertex
100
AcDb2dVertex
 10
4.53845514129653
 20
6.907563420171684
 30
0.0
  0
VERTEX
  5
33C
330
331
100
AcDbEntity
  8
LAYER_1
 62
     7
100
AcDbVertex
100
AcDb2dVertex
 10
4.538821352475526
 20
6.907563420171684
 30
0.0
  0
VERTEX
  5
33D
330
331
100
AcDbEntity
  8
LAYER_1
 62
     7
100
AcDbVertex
100
AcDb2dVertex
 10
4.538821352475526
 20
6.907210772369687
 30
0.0
  0
VERTEX
  5
33E
330
331
100
AcDbEntity
  8
LAYER_1
 62
     7
100
AcDbVertex
100
AcDb2dVertex
 10
4.539174000277522
 20
6.907210772369687
 30
0.0
  0
SEQEND
  5
33F
330
331
100
AcDbEntity
  8
LAYER_1
  0
POLYLINE
  5
340
330
40
100
AcDbEntity
  8
LAYER_1
 62
     7
100
AcDb2dPolyline
 66
     1
 10
0.0
 20
0.0
 30
0.0
  0
VERTEX
  5
341
330
340
100
AcDbEntity
  8
LAYER_1
 62
     7
100
AcDbVertex
100
AcDb2dVertex
 10
4.429080069169746
 20
6.666616809457863
 30
0.0
  0
VERTEX
  5
342
330
340
100
AcDbEntity
  8
LAYER_1
 62
     7
100
AcDbVertex
100
AcDb2dVertex
 10
4.431535040406719
 20
6.650449264074043
 30
0.0
  0
SEQEND
  5
343
330
340
100
AcDbEntity
  8
LAYER_1
  0
POLYLINE
  5
344
330
40
100
AcDbEntity
  8
LAYER_1
 62
     7
100
AcDb2dPolyline
 66
     1
 10
0.0
 20
0.0
 30
0.0
  0
VERTEX
  5
345
330
344
100
AcDbEntity
  8
LAYER_1
 62
     7
100
AcDbVertex
100
AcDb2dVertex
 10
4.431535040406719
 20
6.650449264074043
 30
0.0
  0
VERTEX
  5
346
330
344
100
AcDbEntity
  8
LAYER_1
 62
     7
100
AcDbVertex
100
AcDb2dVertex
 10
4.44490853012857
 20
6.651154559678035
 30
0.0
  0
VERTEX
  5
347
330
344
100
AcDbEntity
  8
LAYER_1
 62
     7
100
AcDbVertex
100
AcDb2dVertex
 10
4.458607540898417
 20
6.652904235311015
 30
0.0
  0
VERTEX
  5
348
330
344
100
AcDbEntity
  8
LAYER_1
 62
     7
100
AcDbVertex
100
AcDb2dVertex
 10
4.471981030620269
 20
6.655711854349985
 30
0.0
  0
SEQEND
  5
349
330
344
100
AcDbEntity
  8
LAYER_1
  0
POLYLINE
  5
34A
330
40
100
AcDbEntity
  8
LAYER_1
 62
     7
100
AcDb2dPolyline
 66
     1
 10
0.0
 20
0.0
 30
0.0
  0
VERTEX
  5
34B
330
34A
100
AcDbEntity
  8
LAYER_1
 62
     7
100
AcDbVertex
100
AcDb2dVertex
 10
4.471981030620269
 20
6.655711854349985
 30
0.0
  0
VERTEX
  5
34C
330
34A
100
AcDbEntity
  8
LAYER_1
 62
     7
100
AcDbVertex
100
AcDb2dVertex
 10
4.472686326224261
 20
6.655020122122992
 30
0.0
  0
VERTEX
  5
34D
330
34A
100
AcDbEntity
  8
LAYER_1
 62
     7
100
AcDbVertex
100
AcDb2dVertex
 10
4.473038974026257
 20
6.655020122122992
 30
0.0
  0
VERTEX
  5
34E
330
34A
100
AcDbEntity
  8
LAYER_1
 62
     7
100
AcDbVertex
100
AcDb2dVertex
 10
4.473038974026257
 20
6.654653910943996
 30
0.0
  0
VERTEX
  5
34F
330
34A
100
AcDbEntity
  8
LAYER_1
 62
     7
100
AcDbVertex
100
AcDb2dVertex
 10
4.473391621828253
 20
6.654653910943996
 30
0.0
  0
VERTEX
  5
350
330
34A
100
AcDbEntity
  8
LAYER_1
 62
     7
100
AcDbVertex
100
AcDb2dVertex
 10
4.47374426963025
 20
6.654308044830501
 30
0.0
  0
VERTEX
  5
351
330
34A
100
AcDbEntity
  8
LAYER_1
 62
     7
100
AcDbVertex
100
AcDb2dVertex
 10
4.474110480809245
 20
6.654308044830501
 30
0.0
  0
SEQEND
  5
352
330
34A
100
AcDbEntity
  8
LAYER_1
  0
SPLINE
  5
353
330
40
100
AcDbEntity
  8
LAYER_1
 62
     7
100
AcDbSpline
210
0.0
220
0.0
230
1.0
 70
    11
 71
     3
 72
    17
 73
    13
 74
     0
 42
0.0000000001
 43
0.0000000001
 40
0.0
 40
0.0
 40
0.0
 40
0.0
 40
1.0
 40
1.0
 40
1.0
 40
2.0
 40
2.0
 40
2.0
 40
3.0
 40
3.0
 40
3.0
 40
4.0
 40
4.0
 40
4.0
 40
4.0
 10
4.628502401198529
 20
6.811182063210755
 30
0.0
 10
4.628244697035531
 20
6.919675515832549
 30
0.0
 10
4.539608028341517
 20
7.008983571688056
 30
0.0
 10
4.430829744802726
 20
7.008515635181561
 30
0.0
 10
4.321861573985938
 20
7.00863092388606
 30
0.0
 10
4.233713186863919
 20
6.919899311553046
 30
0.0
 10
4.233509736208921
 20
6.811182063210755
 30
0.0
 10
4.233428355946922
 20
6.70280389929346
 30
0.0
 10
4.322200658410934
 20
6.613231357586457
 30
0.0
 10
4.430829744802726
 20
6.61385527292845
 30
0.0
 10
4.53933676080152
 20
6.61293974498096
 30
0.0
 10
4.628502401198529
 20
6.702966659817459
 30
0.0
 10
4.628502401198529
 20
6.811182063210755
 30
0.0
  0
SPLINE
  5
354
330
40
100
AcDbEntity
  8
LAYER_1
 62
     7
100
AcDbSpline
210
0.0
220
0.0
230
1.0
 70
     8
 71
     3
 72
     8
 73
     4
 74
     0
 42
0.0000000001
 43
0.0000000001
 40
0.0
 40
0.0
 40
0.0
 40
0.0
 40
1.0
 40
1.0
 40
1.0
 40
1.0
 10
4.474110480809245
 20
6.670143287477824
 30
0.0
 10
4.525542806392673
 20
6.686914403138138
 30
0.0
 10
4.561933346883269
 20
6.725475083948709
 30
0.0
 10
4.574682921263126
 20
6.778121331773623
 30
0.0
  0
SPLINE
  5
355
330
40
100
AcDbEntity
  8
LAYER_1
 62
     7
100
AcDbSpline
210
0.0
220
0.0
230
1.0
 70
     8
 71
     3
 72
    11
 73
     7
 74
     0
 42
0.0000000001
 43
0.0000000001
 40
0.0
 40
0.0
 40
0.0
 40
0.0
 40
1.0
 40
1.0
 40
1.0
 40
2.0
 40
2.0
 40
2.0
 40
2.0
 10
4.574682921263126
 20
6.843890146845892
 30
0.0
 10
4.550729997481393
 20
6.945506967328762
 30
0.0
 10
4.434654617116684
 20
6.990883245081757
 30
0.0
 10
4.34782187756365
 20
6.932886245030402
 30
0.0
 10
4.257272772712657
 20
6.869714816653604
 30
0.0
 10
4.263498362755588
 20
6.735030483045103
 30
0.0
 10
4.360490071681509
 20
6.681753538189695
 30
0.0
  0
POLYLINE
  5
356
330
40
100
AcDbEntity
  8
LAYER_1
 62
     7
100
AcDb2dPolyline
 66
     1
 10
0.0
 20
0.0
 30
0.0
  0
VERTEX
  5
357
330
356
100
AcDbEntity
  8
LAYER_1
 62
     7
100
AcDbVertex
100
AcDb2dVertex
 10
4.475860156442225
 20
6.652904235311015
 30
0.0
  0
VERTEX
  5
358
330
356
100
AcDbEntity
  8
LAYER_1
 62
     7
100
AcDbVertex
100
AcDb2dVertex
 10
4.47550750864023
 20
6.653263664801512
 30
0.0
  0
VERTEX
  5
359
330
356
100
AcDbEntity
  8
LAYER_1
 62
     7
100
AcDbVertex
100
AcDb2dVertex
 10
4.475154860838233
 20
6.653263664801512
 30
0.0
  0
VERTEX
  5
35A
330
356
100
AcDbEntity
  8
LAYER_1
 62
     7
100
AcDbVertex
100
AcDb2dVertex
 10
4.475154860838233
 20
6.653609530915008
 30
0.0
  0
VERTEX
  5
35B
330
356
100
AcDbEntity
  8
LAYER_1
 62
     7
100
AcDbVertex
100
AcDb2dVertex
 10
4.474802213036238
 20
6.653609530915008
 30
0.0
  0
VERTEX
  5
35C
330
356
100
AcDbEntity
  8
LAYER_1
 62
     7
100
AcDbVertex
100
AcDb2dVertex
 10
4.474449565234242
 20
6.653962178717004
 30
0.0
  0
VERTEX
  5
35D
330
356
100
AcDbEntity
  8
LAYER_1
 62
     7
100
AcDbVertex
100
AcDb2dVertex
 10
4.474110480809245
 20
6.653962178717004
 30
0.0
  0
VERTEX
  5
35E
330
356
100
AcDbEntity
  8
LAYER_1
 62
     7
100
AcDbVertex
100
AcDb2dVertex
 10
4.474110480809245
 20
6.654308044830501
 30
0.0
  0
SEQEND
  5
35F
330
356
100
AcDbEntity
  8
LAYER_1
  0
POLYLINE
  5
360
330
40
100
AcDbEntity
  8
LAYER_1
 62
     7
100
AcDb2dPolyline
 66
     1
 10
0.0
 20
0.0
 30
0.0
  0
VERTEX
  5
361
330
360
100
AcDbEntity
  8
LAYER_1
 62
     7
100
AcDbVertex
100
AcDb2dVertex
 10
4.472360805176264
 20
6.672611822091796
 30
0.0
  0
VERTEX
  5
362
330
360
100
AcDbEntity
  8
LAYER_1
 62
     7
100
AcDbVertex
100
AcDb2dVertex
 10
4.472360805176264
 20
6.672245610912801
 30
0.0
  0
VERTEX
  5
363
330
360
100
AcDbEntity
  8
LAYER_1
 62
     7
100
AcDbVertex
100
AcDb2dVertex
 10
4.472686326224261
 20
6.672245610912801
 30
0.0
  0
VERTEX
  5
364
330
360
100
AcDbEntity
  8
LAYER_1
 62
     7
100
AcDbVertex
100
AcDb2dVertex
 10
4.472686326224261
 20
6.671899744799305
 30
0.0
  0
VERTEX
  5
365
330
360
100
AcDbEntity
  8
LAYER_1
 62
     7
100
AcDbVertex
100
AcDb2dVertex
 10
4.473038974026257
 20
6.671553878685808
 30
0.0
  0
VERTEX
  5
366
330
360
100
AcDbEntity
  8
LAYER_1
 62
     7
100
AcDbVertex
100
AcDb2dVertex
 10
4.473038974026257
 20
6.671187667506812
 30
0.0
  0
VERTEX
  5
367
330
360
100
AcDbEntity
  8
LAYER_1
 62
     7
100
AcDbVertex
100
AcDb2dVertex
 10
4.473391621828253
 20
6.671187667506812
 30
0.0
  0
VERTEX
  5
368
330
360
100
AcDbEntity
  8
LAYER_1
 62
     7
100
AcDbVertex
100
AcDb2dVertex
 10
4.473391621828253
 20
6.670848583081816
 30
0.0
  0
VERTEX
  5
369
330
360
100
AcDbEntity
  8
LAYER_1
 62
     7
100
AcDbVertex
100
AcDb2dVertex
 10
4.47374426963025
 20
6.670848583081816
 30
0.0
  0
VERTEX
  5
36A
330
360
100
AcDbEntity
  8
LAYER_1
 62
     7
100
AcDbVertex
100
AcDb2dVertex
 10
4.47374426963025
 20
6.670143287477824
 30
0.0
  0
VERTEX
  5
36B
330
360
100
AcDbEntity
  8
LAYER_1
 62
     7
100
AcDbVertex
100
AcDb2dVertex
 10
4.474110480809245
 20
6.670143287477824
 30
0.0
  0
SEQEND
  5
36C
330
360
100
AcDbEntity
  8
LAYER_1
  0
SPLINE
  5
36D
330
40
100
AcDbEntity
  8
LAYER_1
 62
     7
100
AcDbSpline
210
0.0
220
0.0
230
1.0
 70
     8
 71
     3
 72
    98
 73
    94
 74
     0
 42
0.0000000001
 43
0.0000000001
 40
0.0
 40
0.0
 40
0.0
 40
0.0
 40
1.0
 40
1.0
 40
1.0
 40
2.0
 40
2.0
 40
2.0
 40
3.0
 40
3.0
 40
3.0
 40
4.0
 40
4.0
 40
4.0
 40
5.0
 40
5.0
 40
5.0
 40
6.0
 40
6.0
 40
6.0
 40
7.0
 40
7.0
 40
7.0
 40
8.0
 40
8.0
 40
8.0
 40
9.0
 40
9.0
 40
9.0
 40
10.0
 40
10.0
 40
10.0
 40
11.0
 40
11.0
 40
11.0
 40
12.0
 40
12.0
 40
12.0
 40
13.0
 40
13.0
 40
13.0
 40
14.0
 40
14.0
 40
14.0
 40
15.0
 40
15.0
 40
15.0
 40
16.0
 40
16.0
 40
16.0
 40
17.0
 40
17.0
 40
17.0
 40
18.0
 40
18.0
 40
18.0
 40
19.0
 40
19.0
 40
19.0
 40
20.0
 40
20.0
 40
20.0
 40
21.0
 40
21.0
 40
21.0
 40
22.0
 40
22.0
 40
22.0
 40
23.0
 40
23.0
 40
23.0
 40
24.0
 40
24.0
 40
24.0
 40
25.0
 40
25.0
 40
25.0
 40
26.0
 40
26.0
 40
26.0
 40
27.0
 40
27.0
 40
27.0
 40
28.0
 40
28.0
 40
28.0
 40
29.0
 40
29.0
 40
29.0
 40
30.0
 40
30.0
 40
30.0
 40
31.0
 40
31.0
 40
31.0
 40
31.0
 10
4.474110480809245
 20
6.670143287477824
 30
0.0
 10
4.473988410416246
 20
6.667647626109852
 30
0.0
 10
4.474666579266239
 20
6.66420252835189
 30
0.0
 10
4.474802213036238
 20
6.661700085295418
 30
0.0
 10
4.474653015889239
 20
6.658967064829948
 30
0.0
 10
4.475344748116232
 20
6.660974444625926
 30
0.0
 10
4.475154860838233
 20
6.657475093359965
 30
0.0
 10
4.475154860838233
 20
6.657475093359965
 30
0.0
 10
4.47550750864023
 20
6.656783361132972
 30
0.0
 10
4.47550750864023
 20
6.656783361132972
 30
0.0
 10
4.47550750864023
 20
6.656783361132972
 30
0.0
 10
4.47550750864023
 20
6.653609530915008
 30
0.0
 10
4.47550750864023
 20
6.653609530915008
 30
0.0
 10
4.47550750864023
 20
6.653609530915008
 30
0.0
 10
4.475860156442225
 20
6.652904235311015
 30
0.0
 10
4.475860156442225
 20
6.652904235311015
 30
0.0
 10
4.435848194292671
 20
6.641999280203137
 30
0.0
 10
4.39182147255116
 20
6.645729208878095
 30
0.0
 10
4.355200354651568
 20
6.665558866051875
 30
0.0
 10
4.355200354651568
 20
6.665558866051875
 30
0.0
 10
4.355200354651568
 20
6.666270943344367
 30
0.0
 10
4.355200354651568
 20
6.666270943344367
 30
0.0
 10
4.355200354651568
 20
6.666270943344367
 30
0.0
 10
4.355580129207564
 20
6.666616809457863
 30
0.0
 10
4.355580129207564
 20
6.666616809457863
 30
0.0
 10
4.355580129207564
 20
6.666616809457863
 30
0.0
 10
4.35590565025556
 20
6.667322105061856
 30
0.0
 10
4.35590565025556
 20
6.667322105061856
 30
0.0
 10
4.35590565025556
 20
6.667322105061856
 30
0.0
 10
4.35590565025556
 20
6.668034182354347
 30
0.0
 10
4.35590565025556
 20
6.668034182354347
 30
0.0
 10
4.35590565025556
 20
6.668034182354347
 30
0.0
 10
4.356271861434555
 20
6.668732696269839
 30
0.0
 10
4.356271861434555
 20
6.668732696269839
 30
0.0
 10
4.356271861434555
 20
6.668732696269839
 30
0.0
 10
4.356271861434555
 20
6.669431210185332
 30
0.0
 10
4.356271861434555
 20
6.669431210185332
 30
0.0
 10
4.356271861434555
 20
6.669431210185332
 30
0.0
 10
4.356963593661548
 20
6.670848583081816
 30
0.0
 10
4.356963593661548
 20
6.670848583081816
 30
0.0
 10
4.356963593661548
 20
6.670848583081816
 30
0.0
 10
4.356963593661548
 20
6.671553878685808
 30
0.0
 10
4.356963593661548
 20
6.671553878685808
 30
0.0
 10
4.356963593661548
 20
6.671553878685808
 30
0.0
 10
4.35766888926554
 20
6.672957688205293
 30
0.0
 10
4.35766888926554
 20
6.672957688205293
 30
0.0
 10
4.35766888926554
 20
6.672957688205293
 30
0.0
 10
4.35766888926554
 20
6.673662983809285
 30
0.0
 10
4.35766888926554
 20
6.673662983809285
 30
0.0
 10
4.35859119890153
 20
6.67497184968977
 30
0.0
 10
4.358401311623532
 20
6.676531638044753
 30
0.0
 10
4.359079480473524
 20
6.677874412367738
 30
0.0
 10
4.359079480473524
 20
6.677874412367738
 30
0.0
 10
4.359432128275521
 20
6.678233841858234
 30
0.0
 10
4.359432128275521
 20
6.678233841858234
 30
0.0
 10
4.359432128275521
 20
6.678233841858234
 30
0.0
 10
4.359432128275521
 20
6.678932355773727
 30
0.0
 10
4.359432128275521
 20
6.678932355773727
 30
0.0
 10
4.359432128275521
 20
6.678932355773727
 30
0.0
 10
4.360137423879513
 20
6.680336165293211
 30
0.0
 10
4.360137423879513
 20
6.680336165293211
 30
0.0
 10
4.360137423879513
 20
6.680336165293211
 30
0.0
 10
4.360137423879513
 20
6.681048242585703
 30
0.0
 10
4.360137423879513
 20
6.681048242585703
 30
0.0
 10
4.360137423879513
 20
6.681048242585703
 30
0.0
 10
4.360490071681509
 20
6.681753538189695
 30
0.0
 10
4.360490071681509
 20
6.681753538189695
 30
0.0
 10
4.360490071681509
 20
6.681753538189695
 30
0.0
 10
4.360490071681509
 20
6.682106185991691
 30
0.0
 10
4.360490071681509
 20
6.682106185991691
 30
0.0
 10
4.360490071681509
 20
6.682106185991691
 30
0.0
 10
4.360842719483505
 20
6.682106185991691
 30
0.0
 10
4.360842719483505
 20
6.682106185991691
 30
0.0
 10
4.360842719483505
 20
6.682106185991691
 30
0.0
 10
4.361195367285501
 20
6.682445270416687
 30
0.0
 10
4.361195367285501
 20
6.682445270416687
 30
0.0
 10
4.361195367285501
 20
6.682445270416687
 30
0.0
 10
4.361195367285501
 20
6.682797918218683
 30
0.0
 10
4.361195367285501
 20
6.682797918218683
 30
0.0
 10
4.361195367285501
 20
6.682797918218683
 30
0.0
 10
4.361534451710497
 20
6.682797918218683
 30
0.0
 10
4.361534451710497
 20
6.682797918218683
 30
0.0
 10
4.361534451710497
 20
6.682797918218683
 30
0.0
 10
4.361900662889493
 20
6.683157347709179
 30
0.0
 10
4.361900662889493
 20
6.683157347709179
 30
0.0
 10
4.361900662889493
 20
6.683157347709179
 30
0.0
 10
4.362253310691489
 20
6.683516777199675
 30
0.0
 10
4.362253310691489
 20
6.683516777199675
 30
0.0
 10
4.362253310691489
 20
6.683516777199675
 30
0.0
 10
4.362578831739485
 20
6.683516777199675
 30
0.0
 10
4.362578831739485
 20
6.683516777199675
 30
0.0
 10
4.362578831739485
 20
6.683516777199675
 30
0.0
 10
4.362578831739485
 20
6.683862643313171
 30
0.0
 10
4.362578831739485
 20
6.683862643313171
 30
0.0
  0
POLYLINE
  5
36E
330
40
100
AcDbEntity
  8
LAYER_1
 62
     7
100
AcDb2dPolyline
 66
     1
 10
0.0
 20
0.0
 30
0.0
  0
VERTEX
  5
36F
330
36E
100
AcDbEntity
  8
LAYER_1
 62
     7
100
AcDbVertex
100
AcDb2dVertex
 10
4.269032220571526
 20
6.769684911279717
 30
0.0
  0
VERTEX
  5
370
330
36E
100
AcDbEntity
  8
LAYER_1
 62
     7
100
AcDbVertex
100
AcDb2dVertex
 10
4.271500755185499
 20
6.760543195181818
 30
0.0
  0
VERTEX
  5
371
330
36E
100
AcDbEntity
  8
LAYER_1
 62
     7
100
AcDbVertex
100
AcDb2dVertex
 10
4.265519305928565
 20
6.758779956171838
 30
0.0
  0
VERTEX
  5
372
330
36E
100
AcDbEntity
  8
LAYER_1
 62
     7
100
AcDbVertex
100
AcDb2dVertex
 10
4.262698123512596
 20
6.769325481789221
 30
0.0
  0
VERTEX
  5
373
330
36E
100
AcDbEntity
  8
LAYER_1
 62
     7
100
AcDbVertex
100
AcDb2dVertex
 10
4.260229588898624
 20
6.768633749562229
 30
0.0
  0
VERTEX
  5
374
330
36E
100
AcDbEntity
  8
LAYER_1
 62
     7
100
AcDbVertex
100
AcDb2dVertex
 10
4.263756066918584
 20
6.755612907642374
 30
0.0
  0
VERTEX
  5
375
330
36E
100
AcDbEntity
  8
LAYER_1
 62
     7
100
AcDbVertex
100
AcDb2dVertex
 10
4.283097442520369
 20
6.760882279606815
 30
0.0
  0
VERTEX
  5
376
330
36E
100
AcDbEntity
  8
LAYER_1
 62
     7
100
AcDbVertex
100
AcDb2dVertex
 10
4.282392146916377
 20
6.763350814220788
 30
0.0
  0
VERTEX
  5
377
330
36E
100
AcDbEntity
  8
LAYER_1
 62
     7
100
AcDbVertex
100
AcDb2dVertex
 10
4.273603078620475
 20
6.761248490785811
 30
0.0
  0
VERTEX
  5
378
330
36E
100
AcDbEntity
  8
LAYER_1
 62
     7
100
AcDbVertex
100
AcDb2dVertex
 10
4.271161670760502
 20
6.770030777393213
 30
0.0
  0
VERTEX
  5
379
330
36E
100
AcDbEntity
  8
LAYER_1
 62
     7
100
AcDbVertex
100
AcDb2dVertex
 10
4.269032220571526
 20
6.769684911279717
 30
0.0
  0
SEQEND
  5
37A
330
36E
100
AcDbEntity
  8
LAYER_1
  0
POLYLINE
  5
37B
330
40
100
AcDbEntity
  8
LAYER_1
 62
     7
100
AcDb2dPolyline
 66
     1
 10
0.0
 20
0.0
 30
0.0
  0
VERTEX
  5
37C
330
37B
100
AcDbEntity
  8
LAYER_1
 62
     7
100
AcDbVertex
100
AcDb2dVertex
 10
4.406578426726997
 20
6.966652272071527
 30
0.0
  0
VERTEX
  5
37D
330
37B
100
AcDbEntity
  8
LAYER_1
 62
     7
100
AcDbVertex
100
AcDb2dVertex
 10
4.401288709697055
 20
6.986007211050311
 30
0.0
  0
VERTEX
  5
37E
330
37B
100
AcDbEntity
  8
LAYER_1
 62
     7
100
AcDbVertex
100
AcDb2dVertex
 10
4.398820175083083
 20
6.985301915446319
 30
0.0
  0
VERTEX
  5
37F
330
37B
100
AcDbEntity
  8
LAYER_1
 62
     7
100
AcDbVertex
100
AcDb2dVertex
 10
4.403038385330036
 20
6.970178750091487
 30
0.0
  0
VERTEX
  5
380
330
37B
100
AcDbEntity
  8
LAYER_1
 62
     7
100
AcDbVertex
100
AcDb2dVertex
 10
4.388620515579196
 20
6.982487514718851
 30
0.0
  0
VERTEX
  5
381
330
37B
100
AcDbEntity
  8
LAYER_1
 62
     7
100
AcDbVertex
100
AcDb2dVertex
 10
4.386179107719223
 20
6.981782219114859
 30
0.0
  0
VERTEX
  5
382
330
37B
100
AcDbEntity
  8
LAYER_1
 62
     7
100
AcDbVertex
100
AcDb2dVertex
 10
4.391428134618165
 20
6.962786709626569
 30
0.0
  0
VERTEX
  5
383
330
37B
100
AcDbEntity
  8
LAYER_1
 62
     7
100
AcDbVertex
100
AcDb2dVertex
 10
4.393910232609137
 20
6.963485223542062
 30
0.0
  0
VERTEX
  5
384
330
37B
100
AcDbEntity
  8
LAYER_1
 62
     7
100
AcDbVertex
100
AcDb2dVertex
 10
4.389678458985184
 20
6.978615170585393
 30
0.0
  0
VERTEX
  5
385
330
37B
100
AcDbEntity
  8
LAYER_1
 62
     7
100
AcDbVertex
100
AcDb2dVertex
 10
4.403757244311028
 20
6.965960539844534
 30
0.0
  0
VERTEX
  5
386
330
37B
100
AcDbEntity
  8
LAYER_1
 62
     7
100
AcDbVertex
100
AcDb2dVertex
 10
4.406578426726997
 20
6.966652272071527
 30
0.0
  0
SEQEND
  5
387
330
37B
100
AcDbEntity
  8
LAYER_1
  0
POLYLINE
  5
388
330
40
100
AcDbEntity
  8
LAYER_1
 62
     7
100
AcDb2dPolyline
 66
     1
 10
0.0
 20
0.0
 30
0.0
  0
VERTEX
  5
389
330
388
100
AcDbEntity
  8
LAYER_1
 62
     7
100
AcDbVertex
100
AcDb2dVertex
 10
4.378773503877305
 20
6.958907583804613
 30
0.0
  0
VERTEX
  5
38A
330
388
100
AcDbEntity
  8
LAYER_1
 62
     7
100
AcDbVertex
100
AcDb2dVertex
 10
4.375952321461337
 20
6.958907583804613
 30
0.0
  0
VERTEX
  5
38B
330
388
100
AcDbEntity
  8
LAYER_1
 62
     7
100
AcDbVertex
100
AcDb2dVertex
 10
4.375260589234345
 20
6.959273794983608
 30
0.0
  0
VERTEX
  5
38C
330
388
100
AcDbEntity
  8
LAYER_1
 62
     7
100
AcDbVertex
100
AcDb2dVertex
 10
4.374555293630352
 20
6.959273794983608
 30
0.0
  0
VERTEX
  5
38D
330
388
100
AcDbEntity
  8
LAYER_1
 62
     7
100
AcDbVertex
100
AcDb2dVertex
 10
4.374216209205356
 20
6.959619661097105
 30
0.0
  0
VERTEX
  5
38E
330
388
100
AcDbEntity
  8
LAYER_1
 62
     7
100
AcDbVertex
100
AcDb2dVertex
 10
4.372100322393379
 20
6.960670822814593
 30
0.0
  0
VERTEX
  5
38F
330
388
100
AcDbEntity
  8
LAYER_1
 62
     7
100
AcDbVertex
100
AcDb2dVertex
 10
4.371747674591384
 20
6.961030252305089
 30
0.0
  0
VERTEX
  5
390
330
388
100
AcDbEntity
  8
LAYER_1
 62
     7
100
AcDbVertex
100
AcDb2dVertex
 10
4.370337083383399
 20
6.961728766220581
 30
0.0
  0
VERTEX
  5
391
330
388
100
AcDbEntity
  8
LAYER_1
 62
     7
100
AcDbVertex
100
AcDb2dVertex
 10
4.369984435581403
 20
6.962088195711077
 30
0.0
  0
VERTEX
  5
392
330
388
100
AcDbEntity
  8
LAYER_1
 62
     7
100
AcDbVertex
100
AcDb2dVertex
 10
4.369631787779407
 20
6.962786709626569
 30
0.0
  0
VERTEX
  5
393
330
388
100
AcDbEntity
  8
LAYER_1
 62
     7
100
AcDbVertex
100
AcDb2dVertex
 10
4.368926492175415
 20
6.963139357428566
 30
0.0
  0
VERTEX
  5
394
330
388
100
AcDbEntity
  8
LAYER_1
 62
     7
100
AcDbVertex
100
AcDb2dVertex
 10
4.368573844373419
 20
6.963485223542062
 30
0.0
  0
VERTEX
  5
395
330
388
100
AcDbEntity
  8
LAYER_1
 62
     7
100
AcDbVertex
100
AcDb2dVertex
 10
4.368221196571422
 20
6.964190519146054
 30
0.0
  0
VERTEX
  5
396
330
388
100
AcDbEntity
  8
LAYER_1
 62
     7
100
AcDbVertex
100
AcDb2dVertex
 10
4.36751590096743
 20
6.964902596438546
 30
0.0
  0
VERTEX
  5
397
330
388
100
AcDbEntity
  8
LAYER_1
 62
     7
100
AcDbVertex
100
AcDb2dVertex
 10
4.36751590096743
 20
6.965607892042538
 30
0.0
  0
VERTEX
  5
398
330
388
100
AcDbEntity
  8
LAYER_1
 62
     7
100
AcDbVertex
100
AcDb2dVertex
 10
4.367163253165435
 20
6.965960539844534
 30
0.0
  0
VERTEX
  5
399
330
388
100
AcDbEntity
  8
LAYER_1
 62
     7
100
AcDbVertex
100
AcDb2dVertex
 10
4.367163253165435
 20
6.966299624269531
 30
0.0
  0
SEQEND
  5
39A
330
388
100
AcDbEntity
  8
LAYER_1
  0
SPLINE
  5
39B
330
40
100
AcDbEntity
  8
LAYER_1
 62
     7
100
AcDbSpline
210
0.0
220
0.0
230
1.0
 70
     8
 71
     3
 72
    23
 73
    19
 74
     0
 42
0.0000000001
 43
0.0000000001
 40
0.0
 40
0.0
 40
0.0
 40
0.0
 40
1.0
 40
1.0
 40
1.0
 40
2.0
 40
2.0
 40
2.0
 40
3.0
 40
3.0
 40
3.0
 40
4.0
 40
4.0
 40
4.0
 40
5.0
 40
5.0
 40
5.0
 40
6.0
 40
6.0
 40
6.0
 40
6.0
 10
4.367163253165435
 20
6.966299624269531
 30
0.0
 10
4.367163253165435
 20
6.966299624269531
 30
0.0
 10
4.366837732117438
 20
6.966998138185023
 30
0.0
 10
4.366837732117438
 20
6.966998138185023
 30
0.0
 10
4.366837732117438
 20
6.966998138185023
 30
0.0
 10
4.366837732117438
 20
6.969466672798996
 30
0.0
 10
4.366837732117438
 20
6.969466672798996
 30
0.0
 10
4.366837732117438
 20
6.969466672798996
 30
0.0
 10
4.367163253165435
 20
6.970178750091487
 30
0.0
 10
4.367163253165435
 20
6.970178750091487
 30
0.0
 10
4.367081872903436
 20
6.971392672332974
 30
0.0
 10
4.36757015447543
 20
6.97271510159046
 30
0.0
 10
4.368221196571422
 20
6.973684883045949
 30
0.0
 10
4.368736604897417
 20
6.974580065927938
 30
0.0
 10
4.369713168041407
 20
6.976078819086422
 30
0.0
 10
4.370337083383399
 20
6.976865494952413
 30
0.0
 10
4.372656420850373
 20
6.979605297106382
 30
0.0
 10
4.372588603965374
 20
6.977964128489401
 30
0.0
 10
4.373510913601364
 20
6.97896103669889
 30
0.0
  0
SPLINE
  5
39C
330
40
100
AcDbEntity
  8
LAYER_1
 62
     7
100
AcDbSpline
210
0.0
220
0.0
230
1.0
 70
     8
 71
     3
 72
    44
 73
    40
 74
     0
 42
0.0000000001
 43
0.0000000001
 40
0.0
 40
0.0
 40
0.0
 40
0.0
 40
1.0
 40
1.0
 40
1.0
 40
2.0
 40
2.0
 40
2.0
 40
3.0
 40
3.0
 40
3.0
 40
4.0
 40
4.0
 40
4.0
 40
5.0
 40
5.0
 40
5.0
 40
6.0
 40
6.0
 40
6.0
 40
7.0
 40
7.0
 40
7.0
 40
8.0
 40
8.0
 40
8.0
 40
9.0
 40
9.0
 40
9.0
 40
10.0
 40
10.0
 40
10.0
 40
11.0
 40
11.0
 40
11.0
 40
12.0
 40
12.0
 40
12.0
 40
13.0
 40
13.0
 40
13.0
 40
13.0
 10
4.373510913601364
 20
6.97896103669889
 30
0.0
 10
4.376060828477335
 20
6.979130578911388
 30
0.0
 10
4.378800630631305
 20
6.978655860716393
 30
0.0
 10
4.380889390689282
 20
6.977211361065909
 30
0.0
 10
4.380889390689282
 20
6.977211361065909
 30
0.0
 10
4.381594686293274
 20
6.976865494952413
 30
0.0
 10
4.381594686293274
 20
6.976865494952413
 30
0.0
 10
4.381594686293274
 20
6.976865494952413
 30
0.0
 10
4.38194733409527
 20
6.976153417659921
 30
0.0
 10
4.38194733409527
 20
6.976153417659921
 30
0.0
 10
4.38194733409527
 20
6.976153417659921
 30
0.0
 10
4.382639066322263
 20
6.975807551546425
 30
0.0
 10
4.382639066322263
 20
6.975807551546425
 30
0.0
 10
4.382639066322263
 20
6.975807551546425
 30
0.0
 10
4.382978150747259
 20
6.975448122055929
 30
0.0
 10
4.382978150747259
 20
6.975448122055929
 30
0.0
 10
4.382978150747259
 20
6.975448122055929
 30
0.0
 10
4.383357925303255
 20
6.974736044763437
 30
0.0
 10
4.383357925303255
 20
6.974736044763437
 30
0.0
 10
4.383357925303255
 20
6.974736044763437
 30
0.0
 10
4.384049657530246
 20
6.97439696033844
 30
0.0
 10
4.384049657530246
 20
6.97439696033844
 30
0.0
 10
4.384049657530246
 20
6.97439696033844
 30
0.0
 10
4.384415868709243
 20
6.973684883045949
 30
0.0
 10
4.384415868709243
 20
6.973684883045949
 30
0.0
 10
4.384415868709243
 20
6.973684883045949
 30
0.0
 10
4.384754953134239
 20
6.973339016932452
 30
0.0
 10
4.384754953134239
 20
6.973339016932452
 30
0.0
 10
4.384754953134239
 20
6.973339016932452
 30
0.0
 10
4.384754953134239
 20
6.972986369130457
 30
0.0
 10
4.384754953134239
 20
6.972986369130457
 30
0.0
 10
4.384754953134239
 20
6.972986369130457
 30
0.0
 10
4.385121164313235
 20
6.972281073526464
 30
0.0
 10
4.385121164313235
 20
6.972281073526464
 30
0.0
 10
4.385121164313235
 20
6.972281073526464
 30
0.0
 10
4.385460248738231
 20
6.971928425724468
 30
0.0
 10
4.385460248738231
 20
6.971928425724468
 30
0.0
 10
4.385460248738231
 20
6.971928425724468
 30
0.0
 10
4.385460248738231
 20
6.971582559610972
 30
0.0
 10
4.385460248738231
 20
6.971582559610972
 30
0.0
  0
POLYLINE
  5
39D
330
40
100
AcDbEntity
  8
LAYER_1
 62
     7
100
AcDb2dPolyline
 66
     1
 10
0.0
 20
0.0
 30
0.0
  0
VERTEX
  5
39E
330
39D
100
AcDbEntity
  8
LAYER_1
 62
     7
100
AcDbVertex
100
AcDb2dVertex
 10
4.385460248738231
 20
6.971582559610972
 30
0.0
  0
VERTEX
  5
39F
330
39D
100
AcDbEntity
  8
LAYER_1
 62
     7
100
AcDbVertex
100
AcDb2dVertex
 10
4.385460248738231
 20
6.97087048231848
 30
0.0
  0
VERTEX
  5
3A0
330
39D
100
AcDbEntity
  8
LAYER_1
 62
     7
100
AcDbVertex
100
AcDb2dVertex
 10
4.385799333163227
 20
6.970178750091487
 30
0.0
  0
VERTEX
  5
3A1
330
39D
100
AcDbEntity
  8
LAYER_1
 62
     7
100
AcDbVertex
100
AcDb2dVertex
 10
4.385799333163227
 20
6.9691072433085
 30
0.0
  0
VERTEX
  5
3A2
330
39D
100
AcDbEntity
  8
LAYER_1
 62
     7
100
AcDbVertex
100
AcDb2dVertex
 10
4.385460248738231
 20
6.968415511081507
 30
0.0
  0
VERTEX
  5
3A3
330
39D
100
AcDbEntity
  8
LAYER_1
 62
     7
100
AcDbVertex
100
AcDb2dVertex
 10
4.385460248738231
 20
6.966998138185023
 30
0.0
  0
VERTEX
  5
3A4
330
39D
100
AcDbEntity
  8
LAYER_1
 62
     7
100
AcDbVertex
100
AcDb2dVertex
 10
4.384754953134239
 20
6.965607892042538
 30
0.0
  0
VERTEX
  5
3A5
330
39D
100
AcDbEntity
  8
LAYER_1
 62
     7
100
AcDbVertex
100
AcDb2dVertex
 10
4.384754953134239
 20
6.965248462552042
 30
0.0
  0
VERTEX
  5
3A6
330
39D
100
AcDbEntity
  8
LAYER_1
 62
     7
100
AcDbVertex
100
AcDb2dVertex
 10
4.38371057310525
 20
6.963139357428566
 30
0.0
  0
VERTEX
  5
3A7
330
39D
100
AcDbEntity
  8
LAYER_1
 62
     7
100
AcDbVertex
100
AcDb2dVertex
 10
4.383357925303255
 20
6.962786709626569
 30
0.0
  0
VERTEX
  5
3A8
330
39D
100
AcDbEntity
  8
LAYER_1
 62
     7
100
AcDbVertex
100
AcDb2dVertex
 10
4.382639066322263
 20
6.961376118418586
 30
0.0
  0
VERTEX
  5
3A9
330
39D
100
AcDbEntity
  8
LAYER_1
 62
     7
100
AcDbVertex
100
AcDb2dVertex
 10
4.38194733409527
 20
6.961030252305089
 30
0.0
  0
VERTEX
  5
3AA
330
39D
100
AcDbEntity
  8
LAYER_1
 62
     7
100
AcDbVertex
100
AcDb2dVertex
 10
4.381242038491278
 20
6.960324956701097
 30
0.0
  0
VERTEX
  5
3AB
330
39D
100
AcDbEntity
  8
LAYER_1
 62
     7
100
AcDbVertex
100
AcDb2dVertex
 10
4.380536742887286
 20
6.959965527210601
 30
0.0
  0
VERTEX
  5
3AC
330
39D
100
AcDbEntity
  8
LAYER_1
 62
     7
100
AcDbVertex
100
AcDb2dVertex
 10
4.379831447283293
 20
6.959273794983608
 30
0.0
  0
VERTEX
  5
3AD
330
39D
100
AcDbEntity
  8
LAYER_1
 62
     7
100
AcDbVertex
100
AcDb2dVertex
 10
4.379492362858297
 20
6.959273794983608
 30
0.0
  0
VERTEX
  5
3AE
330
39D
100
AcDbEntity
  8
LAYER_1
 62
     7
100
AcDbVertex
100
AcDb2dVertex
 10
4.378773503877305
 20
6.958907583804613
 30
0.0
  0
SEQEND
  5
3AF
330
39D
100
AcDbEntity
  8
LAYER_1
  0
POLYLINE
  5
3B0
330
40
100
AcDbEntity
  8
LAYER_1
 62
     7
100
AcDb2dPolyline
 66
     1
 10
0.0
 20
0.0
 30
0.0
  0
VERTEX
  5
3B1
330
3B0
100
AcDbEntity
  8
LAYER_1
 62
     7
100
AcDbVertex
100
AcDb2dVertex
 10
4.37842085607531
 20
6.961376118418586
 30
0.0
  0
VERTEX
  5
3B2
330
3B0
100
AcDbEntity
  8
LAYER_1
 62
     7
100
AcDbVertex
100
AcDb2dVertex
 10
4.379126151679301
 20
6.961376118418586
 30
0.0
  0
VERTEX
  5
3B3
330
3B0
100
AcDbEntity
  8
LAYER_1
 62
     7
100
AcDbVertex
100
AcDb2dVertex
 10
4.380536742887286
 20
6.962786709626569
 30
0.0
  0
VERTEX
  5
3B4
330
3B0
100
AcDbEntity
  8
LAYER_1
 62
     7
100
AcDbVertex
100
AcDb2dVertex
 10
4.380889390689282
 20
6.963139357428566
 30
0.0
  0
VERTEX
  5
3B5
330
3B0
100
AcDbEntity
  8
LAYER_1
 62
     7
100
AcDbVertex
100
AcDb2dVertex
 10
4.381242038491278
 20
6.963485223542062
 30
0.0
  0
VERTEX
  5
3B6
330
3B0
100
AcDbEntity
  8
LAYER_1
 62
     7
100
AcDbVertex
100
AcDb2dVertex
 10
4.381242038491278
 20
6.963844653032558
 30
0.0
  0
VERTEX
  5
3B7
330
3B0
100
AcDbEntity
  8
LAYER_1
 62
     7
100
AcDbVertex
100
AcDb2dVertex
 10
4.38194733409527
 20
6.96453638525955
 30
0.0
  0
VERTEX
  5
3B8
330
3B0
100
AcDbEntity
  8
LAYER_1
 62
     7
100
AcDbVertex
100
AcDb2dVertex
 10
4.38194733409527
 20
6.964902596438546
 30
0.0
  0
VERTEX
  5
3B9
330
3B0
100
AcDbEntity
  8
LAYER_1
 62
     7
100
AcDbVertex
100
AcDb2dVertex
 10
4.382299981897266
 20
6.965607892042538
 30
0.0
  0
VERTEX
  5
3BA
330
3B0
100
AcDbEntity
  8
LAYER_1
 62
     7
100
AcDbVertex
100
AcDb2dVertex
 10
4.382639066322263
 20
6.965960539844534
 30
0.0
  0
VERTEX
  5
3BB
330
3B0
100
AcDbEntity
  8
LAYER_1
 62
     7
100
AcDbVertex
100
AcDb2dVertex
 10
4.382639066322263
 20
6.966998138185023
 30
0.0
  0
VERTEX
  5
3BC
330
3B0
100
AcDbEntity
  8
LAYER_1
 62
     7
100
AcDbVertex
100
AcDb2dVertex
 10
4.382978150747259
 20
6.967357567675519
 30
0.0
  0
VERTEX
  5
3BD
330
3B0
100
AcDbEntity
  8
LAYER_1
 62
     7
100
AcDbVertex
100
AcDb2dVertex
 10
4.382978150747259
 20
6.967716997166015
 30
0.0
  0
VERTEX
  5
3BE
330
3B0
100
AcDbEntity
  8
LAYER_1
 62
     7
100
AcDbVertex
100
AcDb2dVertex
 10
4.382978150747259
 20
6.97087048231848
 30
0.0
  0
SEQEND
  5
3BF
330
3B0
100
AcDbEntity
  8
LAYER_1
  0
SPLINE
  5
3C0
330
40
100
AcDbEntity
  8
LAYER_1
 62
     7
100
AcDbSpline
210
0.0
220
0.0
230
1.0
 70
     8
 71
     3
 72
    47
 73
    43
 74
     0
 42
0.0000000001
 43
0.0000000001
 40
0.0
 40
0.0
 40
0.0
 40
0.0
 40
1.0
 40
1.0
 40
1.0
 40
2.0
 40
2.0
 40
2.0
 40
3.0
 40
3.0
 40
3.0
 40
4.0
 40
4.0
 40
4.0
 40
5.0
 40
5.0
 40
5.0
 40
6.0
 40
6.0
 40
6.0
 40
7.0
 40
7.0
 40
7.0
 40
8.0
 40
8.0
 40
8.0
 40
9.0
 40
9.0
 40
9.0
 40
10.0
 40
10.0
 40
10.0
 40
11.0
 40
11.0
 40
11.0
 40
12.0
 40
12.0
 40
12.0
 40
13.0
 40
13.0
 40
13.0
 40
14.0
 40
14.0
 40
14.0
 40
14.0
 10
4.382978150747259
 20
6.97087048231848
 30
0.0
 10
4.382978150747259
 20
6.97087048231848
 30
0.0
 10
4.382639066322263
 20
6.971236693497476
 30
0.0
 10
4.382639066322263
 20
6.971236693497476
 30
0.0
 10
4.382639066322263
 20
6.971236693497476
 30
0.0
 10
4.382639066322263
 20
6.971582559610972
 30
0.0
 10
4.382639066322263
 20
6.971582559610972
 30
0.0
 10
4.382639066322263
 20
6.971582559610972
 30
0.0
 10
4.382299981897266
 20
6.971928425724468
 30
0.0
 10
4.382299981897266
 20
6.971928425724468
 30
0.0
 10
4.382299981897266
 20
6.971928425724468
 30
0.0
 10
4.38194733409527
 20
6.972281073526464
 30
0.0
 10
4.38194733409527
 20
6.972281073526464
 30
0.0
 10
4.38194733409527
 20
6.972281073526464
 30
0.0
 10
4.38194733409527
 20
6.972986369130457
 30
0.0
 10
4.38194733409527
 20
6.972986369130457
 30
0.0
 10
4.38194733409527
 20
6.972986369130457
 30
0.0
 10
4.381594686293274
 20
6.973339016932452
 30
0.0
 10
4.381594686293274
 20
6.973339016932452
 30
0.0
 10
4.380455362625287
 20
6.974620756058938
 30
0.0
 10
4.380509616133286
 20
6.973854425258446
 30
0.0
 10
4.379126151679301
 20
6.975448122055929
 30
0.0
 10
4.379126151679301
 20
6.975448122055929
 30
0.0
 10
4.378773503877305
 20
6.975807551546425
 30
0.0
 10
4.378773503877305
 20
6.975807551546425
 30
0.0
 10
4.378773503877305
 20
6.975807551546425
 30
0.0
 10
4.378081771650313
 20
6.976153417659921
 30
0.0
 10
4.378081771650313
 20
6.976153417659921
 30
0.0
 10
4.378081771650313
 20
6.976153417659921
 30
0.0
 10
4.377715560471318
 20
6.976153417659921
 30
0.0
 10
4.377715560471318
 20
6.976153417659921
 30
0.0
 10
4.377715560471318
 20
6.976153417659921
 30
0.0
 10
4.377362912669321
 20
6.976499283773417
 30
0.0
 10
4.377362912669321
 20
6.976499283773417
 30
0.0
 10
4.377362912669321
 20
6.976499283773417
 30
0.0
 10
4.377010264867325
 20
6.976499283773417
 30
0.0
 10
4.377010264867325
 20
6.976499283773417
 30
0.0
 10
4.377010264867325
 20
6.976499283773417
 30
0.0
 10
4.376332096017332
 20
6.976865494952413
 30
0.0
 10
4.376332096017332
 20
6.976865494952413
 30
0.0
 10
4.376332096017332
 20
6.976865494952413
 30
0.0
 10
4.374216209205356
 20
6.976865494952413
 30
0.0
 10
4.374216209205356
 20
6.976865494952413
 30
0.0
  0
SPLINE
  5
3C1
330
40
100
AcDbEntity
  8
LAYER_1
 62
     7
100
AcDbSpline
210
0.0
220
0.0
230
1.0
 70
     8
 71
     3
 72
    41
 73
    37
 74
     0
 42
0.0000000001
 43
0.0000000001
 40
0.0
 40
0.0
 40
0.0
 40
0.0
 40
1.0
 40
1.0
 40
1.0
 40
2.0
 40
2.0
 40
2.0
 40
3.0
 40
3.0
 40
3.0
 40
4.0
 40
4.0
 40
4.0
 40
5.0
 40
5.0
 40
5.0
 40
6.0
 40
6.0
 40
6.0
 40
7.0
 40
7.0
 40
7.0
 40
8.0
 40
8.0
 40
8.0
 40
9.0
 40
9.0
 40
9.0
 40
10.0
 40
10.0
 40
10.0
 40
11.0
 40
11.0
 40
11.0
 40
12.0
 40
12.0
 40
12.0
 40
12.0
 10
4.374216209205356
 20
6.976865494952413
 30
0.0
 10
4.374216209205356
 20
6.976865494952413
 30
0.0
 10
4.37384999802636
 20
6.976499283773417
 30
0.0
 10
4.37384999802636
 20
6.976499283773417
 30
0.0
 10
4.37384999802636
 20
6.976499283773417
 30
0.0
 10
4.373510913601364
 20
6.976499283773417
 30
0.0
 10
4.373510913601364
 20
6.976499283773417
 30
0.0
 10
4.373510913601364
 20
6.976499283773417
 30
0.0
 10
4.372805617997372
 20
6.975807551546425
 30
0.0
 10
4.372805617997372
 20
6.975807551546425
 30
0.0
 10
4.372805617997372
 20
6.975807551546425
 30
0.0
 10
4.372452970195376
 20
6.975807551546425
 30
0.0
 10
4.372452970195376
 20
6.975807551546425
 30
0.0
 10
4.372452970195376
 20
6.975807551546425
 30
0.0
 10
4.372100322393379
 20
6.975448122055929
 30
0.0
 10
4.372100322393379
 20
6.975448122055929
 30
0.0
 10
4.37120513951139
 20
6.974790298271436
 30
0.0
 10
4.370933871971393
 20
6.973725573176948
 30
0.0
 10
4.370337083383399
 20
6.972986369130457
 30
0.0
 10
4.370337083383399
 20
6.972986369130457
 30
0.0
 10
4.370337083383399
 20
6.972281073526464
 30
0.0
 10
4.370337083383399
 20
6.972281073526464
 30
0.0
 10
4.370337083383399
 20
6.972281073526464
 30
0.0
 10
4.369984435581403
 20
6.971928425724468
 30
0.0
 10
4.369984435581403
 20
6.971928425724468
 30
0.0
 10
4.369984435581403
 20
6.971928425724468
 30
0.0
 10
4.369984435581403
 20
6.971582559610972
 30
0.0
 10
4.369984435581403
 20
6.971582559610972
 30
0.0
 10
4.369984435581403
 20
6.971582559610972
 30
0.0
 10
4.369631787779407
 20
6.97087048231848
 30
0.0
 10
4.369631787779407
 20
6.97087048231848
 30
0.0
 10
4.369631787779407
 20
6.97087048231848
 30
0.0
 10
4.369631787779407
 20
6.969819320600991
 30
0.0
 10
4.369631787779407
 20
6.969819320600991
 30
0.0
 10
4.369631787779407
 20
6.969819320600991
 30
0.0
 10
4.369631787779407
 20
6.966998138185023
 30
0.0
 10
4.369631787779407
 20
6.966998138185023
 30
0.0
  0
SPLINE
  5
3C2
330
40
100
AcDbEntity
  8
LAYER_1
 62
     7
100
AcDbSpline
210
0.0
220
0.0
230
1.0
 70
     8
 71
     3
 72
    44
 73
    40
 74
     0
 42
0.0000000001
 43
0.0000000001
 40
0.0
 40
0.0
 40
0.0
 40
0.0
 40
1.0
 40
1.0
 40
1.0
 40
2.0
 40
2.0
 40
2.0
 40
3.0
 40
3.0
 40
3.0
 40
4.0
 40
4.0
 40
4.0
 40
5.0
 40
5.0
 40
5.0
 40
6.0
 40
6.0
 40
6.0
 40
7.0
 40
7.0
 40
7.0
 40
8.0
 40
8.0
 40
8.0
 40
9.0
 40
9.0
 40
9.0
 40
10.0
 40
10.0
 40
10.0
 40
11.0
 40
11.0
 40
11.0
 40
12.0
 40
12.0
 40
12.0
 40
13.0
 40
13.0
 40
13.0
 40
13.0
 10
4.369631787779407
 20
6.966998138185023
 30
0.0
 10
4.369631787779407
 20
6.966998138185023
 30
0.0
 10
4.369984435581403
 20
6.966652272071527
 30
0.0
 10
4.369984435581403
 20
6.966652272071527
 30
0.0
 10
4.369984435581403
 20
6.966652272071527
 30
0.0
 10
4.369984435581403
 20
6.965960539844534
 30
0.0
 10
4.369984435581403
 20
6.965960539844534
 30
0.0
 10
4.369984435581403
 20
6.965960539844534
 30
0.0
 10
4.370689731185395
 20
6.965248462552042
 30
0.0
 10
4.370689731185395
 20
6.965248462552042
 30
0.0
 10
4.370689731185395
 20
6.965248462552042
 30
0.0
 10
4.370689731185395
 20
6.964902596438546
 30
0.0
 10
4.370689731185395
 20
6.964902596438546
 30
0.0
 10
4.370689731185395
 20
6.964902596438546
 30
0.0
 10
4.371028815610392
 20
6.96453638525955
 30
0.0
 10
4.371028815610392
 20
6.96453638525955
 30
0.0
 10
4.371747674591384
 20
6.963844653032558
 30
0.0
 10
4.372452970195376
 20
6.963139357428566
 30
0.0
 10
4.373158265799368
 20
6.962434061824574
 30
0.0
 10
4.373158265799368
 20
6.962434061824574
 30
0.0
 10
4.373510913601364
 20
6.962434061824574
 30
0.0
 10
4.373510913601364
 20
6.962434061824574
 30
0.0
 10
4.373510913601364
 20
6.962434061824574
 30
0.0
 10
4.37384999802636
 20
6.962088195711077
 30
0.0
 10
4.37384999802636
 20
6.962088195711077
 30
0.0
 10
4.37384999802636
 20
6.962088195711077
 30
0.0
 10
4.374555293630352
 20
6.961728766220581
 30
0.0
 10
4.374555293630352
 20
6.961728766220581
 30
0.0
 10
4.374555293630352
 20
6.961728766220581
 30
0.0
 10
4.374894378055348
 20
6.961728766220581
 30
0.0
 10
4.374894378055348
 20
6.961728766220581
 30
0.0
 10
4.374894378055348
 20
6.961728766220581
 30
0.0
 10
4.375260589234345
 20
6.961376118418586
 30
0.0
 10
4.375260589234345
 20
6.961376118418586
 30
0.0
 10
4.375260589234345
 20
6.961376118418586
 30
0.0
 10
4.375599673659341
 20
6.961376118418586
 30
0.0
 10
4.375599673659341
 20
6.961376118418586
 30
0.0
 10
4.376332096017332
 20
6.961443935303585
 30
0.0
 10
4.377064518375325
 20
6.960474153848096
 30
0.0
 10
4.37842085607531
 20
6.961376118418586
 30
0.0
  0
SPLINE
  5
3C3
330
40
100
AcDbEntity
  8
LAYER_1
 62
     7
100
AcDbSpline
210
0.0
220
0.0
230
1.0
 70
     8
 71
     3
 72
    29
 73
    25
 74
     0
 42
0.0000000001
 43
0.0000000001
 40
0.0
 40
0.0
 40
0.0
 40
0.0
 40
1.0
 40
1.0
 40
1.0
 40
2.0
 40
2.0
 40
2.0
 40
3.0
 40
3.0
 40
3.0
 40
4.0
 40
4.0
 40
4.0
 40
5.0
 40
5.0
 40
5.0
 40
6.0
 40
6.0
 40
6.0
 40
7.0
 40
7.0
 40
7.0
 40
8.0
 40
8.0
 40
8.0
 40
8.0
 10
4.284521597105353
 20
6.74786821937546
 30
0.0
 10
4.284426653466355
 20
6.74872271212645
 30
0.0
 10
4.283748484616362
 20
6.749380535910943
 30
0.0
 10
4.283097442520369
 20
6.749977324498937
 30
0.0
 10
4.281090062724392
 20
6.752167809884412
 30
0.0
 10
4.282541344063375
 20
6.750038359695435
 30
0.0
 10
4.280995119085393
 20
6.751740563508917
 30
0.0
 10
4.280995119085393
 20
6.751740563508917
 30
0.0
 10
4.280276260104401
 20
6.751740563508917
 30
0.0
 10
4.280276260104401
 20
6.751740563508917
 30
0.0
 10
4.280276260104401
 20
6.751740563508917
 30
0.0
 10
4.279937175679405
 20
6.752106774687912
 30
0.0
 10
4.279937175679405
 20
6.752106774687912
 30
0.0
 10
4.279937175679405
 20
6.752106774687912
 30
0.0
 10
4.278892795650417
 20
6.752106774687912
 30
0.0
 10
4.278892795650417
 20
6.752106774687912
 30
0.0
 10
4.278892795650417
 20
6.752106774687912
 30
0.0
 10
4.27854014784842
 20
6.752445859112909
 30
0.0
 10
4.27854014784842
 20
6.752445859112909
 30
0.0
 10
4.27854014784842
 20
6.752445859112909
 30
0.0
 10
4.278187500046424
 20
6.752445859112909
 30
0.0
 10
4.278187500046424
 20
6.752445859112909
 30
0.0
 10
4.278187500046424
 20
6.752445859112909
 30
0.0
 10
4.275013669828459
 20
6.752445859112909
 30
0.0
 10
4.275013669828459
 20
6.752445859112909
 30
0.0
  0
SPLINE
  5
3C4
330
40
100
AcDbEntity
  8
LAYER_1
 62
     7
100
AcDbSpline
210
0.0
220
0.0
230
1.0
 70
     8
 71
     3
 72
    47
 73
    43
 74
     0
 42
0.0000000001
 43
0.0000000001
 40
0.0
 40
0.0
 40
0.0
 40
0.0
 40
1.0
 40
1.0
 40
1.0
 40
2.0
 40
2.0
 40
2.0
 40
3.0
 40
3.0
 40
3.0
 40
4.0
 40
4.0
 40
4.0
 40
5.0
 40
5.0
 40
5.0
 40
6.0
 40
6.0
 40
6.0
 40
7.0
 40
7.0
 40
7.0
 40
8.0
 40
8.0
 40
8.0
 40
9.0
 40
9.0
 40
9.0
 40
10.0
 40
10.0
 40
10.0
 40
11.0
 40
11.0
 40
11.0
 40
12.0
 40
12.0
 40
12.0
 40
13.0
 40
13.0
 40
13.0
 40
14.0
 40
14.0
 40
14.0
 40
14.0
 10
4.275013669828459
 20
6.752445859112909
 30
0.0
 10
4.275013669828459
 20
6.752445859112909
 30
0.0
 10
4.274661022026463
 20
6.752106774687912
 30
0.0
 10
4.274661022026463
 20
6.752106774687912
 30
0.0
 10
4.274661022026463
 20
6.752106774687912
 30
0.0
 10
4.274308374224467
 20
6.752106774687912
 30
0.0
 10
4.274308374224467
 20
6.752106774687912
 30
0.0
 10
4.274308374224467
 20
6.752106774687912
 30
0.0
 10
4.273955726422471
 20
6.751740563508917
 30
0.0
 10
4.273955726422471
 20
6.751740563508917
 30
0.0
 10
4.273955726422471
 20
6.751740563508917
 30
0.0
 10
4.273603078620475
 20
6.751740563508917
 30
0.0
 10
4.273603078620475
 20
6.751740563508917
 30
0.0
 10
4.273603078620475
 20
6.751740563508917
 30
0.0
 10
4.272897783016483
 20
6.751394697395421
 30
0.0
 10
4.272897783016483
 20
6.751394697395421
 30
0.0
 10
4.272897783016483
 20
6.751394697395421
 30
0.0
 10
4.272558698591487
 20
6.751048831281924
 30
0.0
 10
4.272558698591487
 20
6.751048831281924
 30
0.0
 10
4.270944656728505
 20
6.74965858513944
 30
0.0
 10
4.271731332594496
 20
6.74970605695894
 30
0.0
 10
4.27042924840251
 20
6.748580296667952
 30
0.0
 10
4.27042924840251
 20
6.748580296667952
 30
0.0
 10
4.270103727354514
 20
6.748234430554455
 30
0.0
 10
4.270103727354514
 20
6.748234430554455
 30
0.0
 10
4.270103727354514
 20
6.748234430554455
 30
0.0
 10
4.269751079552518
 20
6.747522353261964
 30
0.0
 10
4.269751079552518
 20
6.747522353261964
 30
0.0
 10
4.269751079552518
 20
6.747522353261964
 30
0.0
 10
4.269751079552518
 20
6.747162923771468
 30
0.0
 10
4.269751079552518
 20
6.747162923771468
 30
0.0
 10
4.269751079552518
 20
6.747162923771468
 30
0.0
 10
4.269371304996522
 20
6.746817057657972
 30
0.0
 10
4.269371304996522
 20
6.746817057657972
 30
0.0
 10
4.269371304996522
 20
6.746817057657972
 30
0.0
 10
4.269371304996522
 20
6.746471191544475
 30
0.0
 10
4.269371304996522
 20
6.746471191544475
 30
0.0
 10
4.269371304996522
 20
6.746471191544475
 30
0.0
 10
4.269032220571526
 20
6.745772677628983
 30
0.0
 10
4.269032220571526
 20
6.745772677628983
 30
0.0
 10
4.269032220571526
 20
6.745772677628983
 30
0.0
 10
4.269032220571526
 20
6.743656790817006
 30
0.0
 10
4.269032220571526
 20
6.743656790817006
 30
0.0
  0
POLYLINE
  5
3C5
330
40
100
AcDbEntity
  8
LAYER_1
 62
     7
100
AcDb2dPolyline
 66
     1
 10
0.0
 20
0.0
 30
0.0
  0
VERTEX
  5
3C6
330
3C5
100
AcDbEntity
  8
LAYER_1
 62
     7
100
AcDbVertex
100
AcDb2dVertex
 10
4.269032220571526
 20
6.743656790817006
 30
0.0
  0
VERTEX
  5
3C7
330
3C5
100
AcDbEntity
  8
LAYER_1
 62
     7
100
AcDbVertex
100
AcDb2dVertex
 10
4.269371304996522
 20
6.743304143015011
 30
0.0
  0
VERTEX
  5
3C8
330
3C5
100
AcDbEntity
  8
LAYER_1
 62
     7
100
AcDbVertex
100
AcDb2dVertex
 10
4.269371304996522
 20
6.742951495213014
 30
0.0
  0
VERTEX
  5
3C9
330
3C5
100
AcDbEntity
  8
LAYER_1
 62
     7
100
AcDbVertex
100
AcDb2dVertex
 10
4.270103727354514
 20
6.742246199609022
 30
0.0
  0
VERTEX
  5
3CA
330
3C5
100
AcDbEntity
  8
LAYER_1
 62
     7
100
AcDbVertex
100
AcDb2dVertex
 10
4.270103727354514
 20
6.741893551807026
 30
0.0
  0
VERTEX
  5
3CB
330
3C5
100
AcDbEntity
  8
LAYER_1
 62
     7
100
AcDbVertex
100
AcDb2dVertex
 10
4.271500755185499
 20
6.740489742287542
 30
0.0
  0
VERTEX
  5
3CC
330
3C5
100
AcDbEntity
  8
LAYER_1
 62
     7
100
AcDbVertex
100
AcDb2dVertex
 10
4.27219248741249
 20
6.740489742287542
 30
0.0
  0
VERTEX
  5
3CD
330
3C5
100
AcDbEntity
  8
LAYER_1
 62
     7
100
AcDbVertex
100
AcDb2dVertex
 10
4.272897783016483
 20
6.739777664995049
 30
0.0
  0
VERTEX
  5
3CE
330
3C5
100
AcDbEntity
  8
LAYER_1
 62
     7
100
AcDbVertex
100
AcDb2dVertex
 10
4.273603078620475
 20
6.739777664995049
 30
0.0
  0
VERTEX
  5
3CF
330
3C5
100
AcDbEntity
  8
LAYER_1
 62
     7
100
AcDbVertex
100
AcDb2dVertex
 10
4.273955726422471
 20
6.739431798881554
 30
0.0
  0
VERTEX
  5
3D0
330
3C5
100
AcDbEntity
  8
LAYER_1
 62
     7
100
AcDbVertex
100
AcDb2dVertex
 10
4.274308374224467
 20
6.739431798881554
 30
0.0
  0
VERTEX
  5
3D1
330
3C5
100
AcDbEntity
  8
LAYER_1
 62
     7
100
AcDbVertex
100
AcDb2dVertex
 10
4.275013669828459
 20
6.739085932768058
 30
0.0
  0
VERTEX
  5
3D2
330
3C5
100
AcDbEntity
  8
LAYER_1
 62
     7
100
AcDbVertex
100
AcDb2dVertex
 10
4.276085176611447
 20
6.739085932768058
 30
0.0
  0
VERTEX
  5
3D3
330
3C5
100
AcDbEntity
  8
LAYER_1
 62
     7
100
AcDbVertex
100
AcDb2dVertex
 10
4.278892795650417
 20
6.739085932768058
 30
0.0
  0
SEQEND
  5
3D4
330
3C5
100
AcDbEntity
  8
LAYER_1
  0
SPLINE
  5
3D5
330
40
100
AcDbEntity
  8
LAYER_1
 62
     7
100
AcDbSpline
210
0.0
220
0.0
230
1.0
 70
     8
 71
     3
 72
    50
 73
    46
 74
     0
 42
0.0000000001
 43
0.0000000001
 40
0.0
 40
0.0
 40
0.0
 40
0.0
 40
1.0
 40
1.0
 40
1.0
 40
2.0
 40
2.0
 40
2.0
 40
3.0
 40
3.0
 40
3.0
 40
4.0
 40
4.0
 40
4.0
 40
5.0
 40
5.0
 40
5.0
 40
6.0
 40
6.0
 40
6.0
 40
7.0
 40
7.0
 40
7.0
 40
8.0
 40
8.0
 40
8.0
 40
9.0
 40
9.0
 40
9.0
 40
10.0
 40
10.0
 40
10.0
 40
11.0
 40
11.0
 40
11.0
 40
12.0
 40
12.0
 40
12.0
 40
13.0
 40
13.0
 40
13.0
 40
14.0
 40
14.0
 40
14.0
 40
15.0
 40
15.0
 40
15.0
 40
15.0
 10
4.278892795650417
 20
6.739085932768058
 30
0.0
 10
4.278892795650417
 20
6.739085932768058
 30
0.0
 10
4.279231880075413
 20
6.739431798881554
 30
0.0
 10
4.279231880075413
 20
6.739431798881554
 30
0.0
 10
4.279231880075413
 20
6.739431798881554
 30
0.0
 10
4.279937175679405
 20
6.739431798881554
 30
0.0
 10
4.279937175679405
 20
6.739431798881554
 30
0.0
 10
4.279937175679405
 20
6.739431798881554
 30
0.0
 10
4.280656034660397
 20
6.740143876174046
 30
0.0
 10
4.280656034660397
 20
6.740143876174046
 30
0.0
 10
4.280656034660397
 20
6.740143876174046
 30
0.0
 10
4.280995119085393
 20
6.740143876174046
 30
0.0
 10
4.280995119085393
 20
6.740143876174046
 30
0.0
 10
4.280995119085393
 20
6.740143876174046
 30
0.0
 10
4.281334203510389
 20
6.740489742287542
 30
0.0
 10
4.281334203510389
 20
6.740489742287542
 30
0.0
 10
4.282039499114381
 20
6.741188256203034
 30
0.0
 10
4.282771921472373
 20
6.741893551807026
 30
0.0
 10
4.283463653699365
 20
6.742592065722518
 30
0.0
 10
4.283463653699365
 20
6.742592065722518
 30
0.0
 10
4.283463653699365
 20
6.742951495213014
 30
0.0
 10
4.283463653699365
 20
6.742951495213014
 30
0.0
 10
4.283463653699365
 20
6.742951495213014
 30
0.0
 10
4.283802738124361
 20
6.743656790817006
 30
0.0
 10
4.283802738124361
 20
6.743656790817006
 30
0.0
 10
4.283802738124361
 20
6.743656790817006
 30
0.0
 10
4.284155385926358
 20
6.744009438619003
 30
0.0
 10
4.284155385926358
 20
6.744009438619003
 30
0.0
 10
4.284155385926358
 20
6.744009438619003
 30
0.0
 10
4.284155385926358
 20
6.744355304732498
 30
0.0
 10
4.284155385926358
 20
6.744355304732498
 30
0.0
 10
4.284155385926358
 20
6.744355304732498
 30
0.0
 10
4.284521597105353
 20
6.744714734222995
 30
0.0
 10
4.284521597105353
 20
6.744714734222995
 30
0.0
 10
4.284521597105353
 20
6.744714734222995
 30
0.0
 10
4.284521597105353
 20
6.745772677628983
 30
0.0
 10
4.284521597105353
 20
6.745772677628983
 30
0.0
 10
4.284521597105353
 20
6.745772677628983
 30
0.0
 10
4.28486068153035
 20
6.74611854374248
 30
0.0
 10
4.28486068153035
 20
6.74611854374248
 30
0.0
 10
4.28486068153035
 20
6.74611854374248
 30
0.0
 10
4.28486068153035
 20
6.747522353261964
 30
0.0
 10
4.28486068153035
 20
6.747522353261964
 30
0.0
 10
4.28486068153035
 20
6.747522353261964
 30
0.0
 10
4.284521597105353
 20
6.74786821937546
 30
0.0
 10
4.284521597105353
 20
6.74786821937546
 30
0.0
  0
POLYLINE
  5
3D6
330
40
100
AcDbEntity
  8
LAYER_1
 62
     7
100
AcDb2dPolyline
 66
     1
 10
0.0
 20
0.0
 30
0.0
  0
VERTEX
  5
3D7
330
3D6
100
AcDbEntity
  8
LAYER_1
 62
     7
100
AcDbVertex
100
AcDb2dVertex
 10
4.286976568342326
 20
6.748580296667952
 30
0.0
  0
VERTEX
  5
3D8
330
3D6
100
AcDbEntity
  8
LAYER_1
 62
     7
100
AcDbVertex
100
AcDb2dVertex
 10
4.286976568342326
 20
6.745406466449987
 30
0.0
  0
VERTEX
  5
3D9
330
3D6
100
AcDbEntity
  8
LAYER_1
 62
     7
100
AcDbVertex
100
AcDb2dVertex
 10
4.28662392054033
 20
6.744714734222995
 30
0.0
  0
VERTEX
  5
3DA
330
3D6
100
AcDbEntity
  8
LAYER_1
 62
     7
100
AcDbVertex
100
AcDb2dVertex
 10
4.28662392054033
 20
6.744009438619003
 30
0.0
  0
VERTEX
  5
3DB
330
3D6
100
AcDbEntity
  8
LAYER_1
 62
     7
100
AcDbVertex
100
AcDb2dVertex
 10
4.286271272738334
 20
6.743656790817006
 30
0.0
  0
VERTEX
  5
3DC
330
3D6
100
AcDbEntity
  8
LAYER_1
 62
     7
100
AcDbVertex
100
AcDb2dVertex
 10
4.285918624936338
 20
6.742951495213014
 30
0.0
  0
VERTEX
  5
3DD
330
3D6
100
AcDbEntity
  8
LAYER_1
 62
     7
100
AcDbVertex
100
AcDb2dVertex
 10
4.285579540511342
 20
6.742246199609022
 30
0.0
  0
VERTEX
  5
3DE
330
3D6
100
AcDbEntity
  8
LAYER_1
 62
     7
100
AcDbVertex
100
AcDb2dVertex
 10
4.285213329332346
 20
6.74154090400503
 30
0.0
  0
VERTEX
  5
3DF
330
3D6
100
AcDbEntity
  8
LAYER_1
 62
     7
100
AcDbVertex
100
AcDb2dVertex
 10
4.28486068153035
 20
6.741188256203034
 30
0.0
  0
VERTEX
  5
3E0
330
3D6
100
AcDbEntity
  8
LAYER_1
 62
     7
100
AcDbVertex
100
AcDb2dVertex
 10
4.284521597105353
 20
6.740489742287542
 30
0.0
  0
VERTEX
  5
3E1
330
3D6
100
AcDbEntity
  8
LAYER_1
 62
     7
100
AcDbVertex
100
AcDb2dVertex
 10
4.284155385926358
 20
6.740143876174046
 30
0.0
  0
VERTEX
  5
3E2
330
3D6
100
AcDbEntity
  8
LAYER_1
 62
     7
100
AcDbVertex
100
AcDb2dVertex
 10
4.283802738124361
 20
6.739431798881554
 30
0.0
  0
VERTEX
  5
3E3
330
3D6
100
AcDbEntity
  8
LAYER_1
 62
     7
100
AcDbVertex
100
AcDb2dVertex
 10
4.283097442520369
 20
6.739085932768058
 30
0.0
  0
VERTEX
  5
3E4
330
3D6
100
AcDbEntity
  8
LAYER_1
 62
     7
100
AcDbVertex
100
AcDb2dVertex
 10
4.282771921472373
 20
6.738373855475565
 30
0.0
  0
VERTEX
  5
3E5
330
3D6
100
AcDbEntity
  8
LAYER_1
 62
     7
100
AcDbVertex
100
AcDb2dVertex
 10
4.282392146916377
 20
6.738014425985069
 30
0.0
  0
VERTEX
  5
3E6
330
3D6
100
AcDbEntity
  8
LAYER_1
 62
     7
100
AcDbVertex
100
AcDb2dVertex
 10
4.281713978066385
 20
6.737682123248573
 30
0.0
  0
VERTEX
  5
3E7
330
3D6
100
AcDbEntity
  8
LAYER_1
 62
     7
100
AcDbVertex
100
AcDb2dVertex
 10
4.280995119085393
 20
6.736963264267581
 30
0.0
  0
VERTEX
  5
3E8
330
3D6
100
AcDbEntity
  8
LAYER_1
 62
     7
100
AcDbVertex
100
AcDb2dVertex
 10
4.280276260104401
 20
6.736963264267581
 30
0.0
  0
VERTEX
  5
3E9
330
3D6
100
AcDbEntity
  8
LAYER_1
 62
     7
100
AcDbVertex
100
AcDb2dVertex
 10
4.279937175679405
 20
6.736617398154085
 30
0.0
  0
VERTEX
  5
3EA
330
3D6
100
AcDbEntity
  8
LAYER_1
 62
     7
100
AcDbVertex
100
AcDb2dVertex
 10
4.279598091254408
 20
6.736617398154085
 30
0.0
  0
SEQEND
  5
3EB
330
3D6
100
AcDbEntity
  8
LAYER_1
  0
SPLINE
  5
3EC
330
40
100
AcDbEntity
  8
LAYER_1
 62
     7
100
AcDbSpline
210
0.0
220
0.0
230
1.0
 70
     8
 71
     3
 72
    41
 73
    37
 74
     0
 42
0.0000000001
 43
0.0000000001
 40
0.0
 40
0.0
 40
0.0
 40
0.0
 40
1.0
 40
1.0
 40
1.0
 40
2.0
 40
2.0
 40
2.0
 40
3.0
 40
3.0
 40
3.0
 40
4.0
 40
4.0
 40
4.0
 40
5.0
 40
5.0
 40
5.0
 40
6.0
 40
6.0
 40
6.0
 40
7.0
 40
7.0
 40
7.0
 40
8.0
 40
8.0
 40
8.0
 40
9.0
 40
9.0
 40
9.0
 40
10.0
 40
10.0
 40
10.0
 40
11.0
 40
11.0
 40
11.0
 40
12.0
 40
12.0
 40
12.0
 40
12.0
 10
4.279598091254408
 20
6.736617398154085
 30
0.0
 10
4.278404514078422
 20
6.736454637630087
 30
0.0
 10
4.276939669362438
 20
6.735790032157094
 30
0.0
 10
4.275718965432452
 20
6.736617398154085
 30
0.0
 10
4.275718965432452
 20
6.736617398154085
 30
0.0
 10
4.274661022026463
 20
6.736617398154085
 30
0.0
 10
4.274661022026463
 20
6.736617398154085
 30
0.0
 10
4.274661022026463
 20
6.736617398154085
 30
0.0
 10
4.273250430818479
 20
6.737322693758077
 30
0.0
 10
4.273250430818479
 20
6.737322693758077
 30
0.0
 10
4.273250430818479
 20
6.737322693758077
 30
0.0
 10
4.272897783016483
 20
6.737322693758077
 30
0.0
 10
4.272897783016483
 20
6.737322693758077
 30
0.0
 10
4.272897783016483
 20
6.737322693758077
 30
0.0
 10
4.27219248741249
 20
6.737682123248573
 30
0.0
 10
4.27219248741249
 20
6.737682123248573
 30
0.0
 10
4.2713244312845
 20
6.738177186509067
 30
0.0
 10
4.269805333060517
 20
6.739153749653057
 30
0.0
 10
4.269032220571526
 20
6.739777664995049
 30
0.0
 10
4.269032220571526
 20
6.739777664995049
 30
0.0
 10
4.268693136146529
 20
6.740489742287542
 30
0.0
 10
4.268693136146529
 20
6.740489742287542
 30
0.0
 10
4.268693136146529
 20
6.740489742287542
 30
0.0
 10
4.267987840542538
 20
6.740849171778038
 30
0.0
 10
4.267987840542538
 20
6.740849171778038
 30
0.0
 10
4.267987840542538
 20
6.740849171778038
 30
0.0
 10
4.267621629363542
 20
6.741188256203034
 30
0.0
 10
4.267621629363542
 20
6.741188256203034
 30
0.0
 10
4.267621629363542
 20
6.741188256203034
 30
0.0
 10
4.267282544938546
 20
6.741893551807026
 30
0.0
 10
4.267282544938546
 20
6.741893551807026
 30
0.0
 10
4.267282544938546
 20
6.741893551807026
 30
0.0
 10
4.267282544938546
 20
6.742592065722518
 30
0.0
 10
4.267282544938546
 20
6.742592065722518
 30
0.0
 10
4.267282544938546
 20
6.742592065722518
 30
0.0
 10
4.266929897136549
 20
6.742951495213014
 30
0.0
 10
4.266929897136549
 20
6.742951495213014
 30
0.0
  0
SPLINE
  5
3ED
330
40
100
AcDbEntity
  8
LAYER_1
 62
     7
100
AcDbSpline
210
0.0
220
0.0
230
1.0
 70
     8
 71
     3
 72
    44
 73
    40
 74
     0
 42
0.0000000001
 43
0.0000000001
 40
0.0
 40
0.0
 40
0.0
 40
0.0
 40
1.0
 40
1.0
 40
1.0
 40
2.0
 40
2.0
 40
2.0
 40
3.0
 40
3.0
 40
3.0
 40
4.0
 40
4.0
 40
4.0
 40
5.0
 40
5.0
 40
5.0
 40
6.0
 40
6.0
 40
6.0
 40
7.0
 40
7.0
 40
7.0
 40
8.0
 40
8.0
 40
8.0
 40
9.0
 40
9.0
 40
9.0
 40
10.0
 40
10.0
 40
10.0
 40
11.0
 40
11.0
 40
11.0
 40
12.0
 40
12.0
 40
12.0
 40
13.0
 40
13.0
 40
13.0
 40
13.0
 10
4.266929897136549
 20
6.742951495213014
 30
0.0
 10
4.266929897136549
 20
6.742951495213014
 30
0.0
 10
4.266929897136549
 20
6.746817057657972
 30
0.0
 10
4.266929897136549
 20
6.746817057657972
 30
0.0
 10
4.266929897136549
 20
6.746817057657972
 30
0.0
 10
4.267282544938546
 20
6.747162923771468
 30
0.0
 10
4.267282544938546
 20
6.747162923771468
 30
0.0
 10
4.267282544938546
 20
6.747162923771468
 30
0.0
 10
4.267621629363542
 20
6.74786821937546
 30
0.0
 10
4.267621629363542
 20
6.74786821937546
 30
0.0
 10
4.267621629363542
 20
6.74786821937546
 30
0.0
 10
4.267621629363542
 20
6.748580296667952
 30
0.0
 10
4.267621629363542
 20
6.748580296667952
 30
0.0
 10
4.267621629363542
 20
6.748580296667952
 30
0.0
 10
4.267987840542538
 20
6.749292373960444
 30
0.0
 10
4.267987840542538
 20
6.749292373960444
 30
0.0
 10
4.267987840542538
 20
6.749292373960444
 30
0.0
 10
4.268340488344534
 20
6.74963145838544
 30
0.0
 10
4.268340488344534
 20
6.74963145838544
 30
0.0
 10
4.268340488344534
 20
6.74963145838544
 30
0.0
 10
4.268693136146529
 20
6.750329972300932
 30
0.0
 10
4.268693136146529
 20
6.750329972300932
 30
0.0
 10
4.269479812012521
 20
6.75144216921492
 30
0.0
 10
4.27048350191051
 20
6.752459422489909
 30
0.0
 10
4.271500755185499
 20
6.753503802518897
 30
0.0
 10
4.271500755185499
 20
6.753503802518897
 30
0.0
 10
4.27219248741249
 20
6.753856450320893
 30
0.0
 10
4.27219248741249
 20
6.753856450320893
 30
0.0
 10
4.27219248741249
 20
6.753856450320893
 30
0.0
 10
4.272897783016483
 20
6.754554964236386
 30
0.0
 10
4.272897783016483
 20
6.754554964236386
 30
0.0
 10
4.272897783016483
 20
6.754554964236386
 30
0.0
 10
4.273603078620475
 20
6.754554964236386
 30
0.0
 10
4.273603078620475
 20
6.754554964236386
 30
0.0
 10
4.273603078620475
 20
6.754554964236386
 30
0.0
 10
4.273955726422471
 20
6.754914393726882
 30
0.0
 10
4.273955726422471
 20
6.754914393726882
 30
0.0
 10
4.273955726422471
 20
6.754914393726882
 30
0.0
 10
4.274308374224467
 20
6.754914393726882
 30
0.0
 10
4.274308374224467
 20
6.754914393726882
 30
0.0
  0
SPLINE
  5
3EE
330
40
100
AcDbEntity
  8
LAYER_1
 62
     7
100
AcDbSpline
210
0.0
220
0.0
230
1.0
 70
     8
 71
     3
 72
    38
 73
    34
 74
     0
 42
0.0000000001
 43
0.0000000001
 40
0.0
 40
0.0
 40
0.0
 40
0.0
 40
1.0
 40
1.0
 40
1.0
 40
2.0
 40
2.0
 40
2.0
 40
3.0
 40
3.0
 40
3.0
 40
4.0
 40
4.0
 40
4.0
 40
5.0
 40
5.0
 40
5.0
 40
6.0
 40
6.0
 40
6.0
 40
7.0
 40
7.0
 40
7.0
 40
8.0
 40
8.0
 40
8.0
 40
9.0
 40
9.0
 40
9.0
 40
10.0
 40
10.0
 40
10.0
 40
11.0
 40
11.0
 40
11.0
 40
11.0
 10
4.274308374224467
 20
6.754914393726882
 30
0.0
 10
4.275474824646454
 20
6.75507715425088
 30
0.0
 10
4.276953232739438
 20
6.755741759723872
 30
0.0
 10
4.278187500046424
 20
6.754914393726882
 30
0.0
 10
4.279652344762408
 20
6.754914393726882
 30
0.0
 10
4.280750978299396
 20
6.754181971368889
 30
0.0
 10
4.282039499114381
 20
6.753503802518897
 30
0.0
 10
4.282039499114381
 20
6.753503802518897
 30
0.0
 10
4.282771921472373
 20
6.753151154716901
 30
0.0
 10
4.282771921472373
 20
6.753151154716901
 30
0.0
 10
4.282771921472373
 20
6.753151154716901
 30
0.0
 10
4.283097442520369
 20
6.752791725226405
 30
0.0
 10
4.283097442520369
 20
6.752791725226405
 30
0.0
 10
4.283097442520369
 20
6.752791725226405
 30
0.0
 10
4.284521597105353
 20
6.752106774687912
 30
0.0
 10
4.284521597105353
 20
6.752106774687912
 30
0.0
 10
4.284521597105353
 20
6.752106774687912
 30
0.0
 10
4.28486068153035
 20
6.751394697395421
 30
0.0
 10
4.28486068153035
 20
6.751394697395421
 30
0.0
 10
4.28486068153035
 20
6.751394697395421
 30
0.0
 10
4.285579540511342
 20
6.750689401791428
 30
0.0
 10
4.285579540511342
 20
6.750689401791428
 30
0.0
 10
4.285579540511342
 20
6.750689401791428
 30
0.0
 10
4.285918624936338
 20
6.749977324498937
 30
0.0
 10
4.285918624936338
 20
6.749977324498937
 30
0.0
 10
4.285918624936338
 20
6.749977324498937
 30
0.0
 10
4.28662392054033
 20
6.749292373960444
 30
0.0
 10
4.28662392054033
 20
6.749292373960444
 30
0.0
 10
4.28662392054033
 20
6.749292373960444
 30
0.0
 10
4.28662392054033
 20
6.748926162781448
 30
0.0
 10
4.28662392054033
 20
6.748926162781448
 30
0.0
 10
4.28662392054033
 20
6.748926162781448
 30
0.0
 10
4.286976568342326
 20
6.748580296667952
 30
0.0
 10
4.286976568342326
 20
6.748580296667952
 30
0.0
  0
POLYLINE
  5
3EF
330
40
100
AcDbEntity
  8
LAYER_1
 62
     7
100
AcDb2dPolyline
 66
     1
 10
0.0
 20
0.0
 30
0.0
  0
VERTEX
  5
3F0
330
3EF
100
AcDbEntity
  8
LAYER_1
 62
     7
100
AcDbVertex
100
AcDb2dVertex
 10
4.264461362522576
 20
6.785859238352037
 30
0.0
  0
VERTEX
  5
3F1
330
3EF
100
AcDbEntity
  8
LAYER_1
 62
     7
100
AcDbVertex
100
AcDb2dVertex
 10
4.266929897136549
 20
6.777070170056135
 30
0.0
  0
VERTEX
  5
3F2
330
3EF
100
AcDbEntity
  8
LAYER_1
 62
     7
100
AcDbVertex
100
AcDb2dVertex
 10
4.260934884502616
 20
6.775313712734654
 30
0.0
  0
VERTEX
  5
3F3
330
3EF
100
AcDbEntity
  8
LAYER_1
 62
     7
100
AcDbVertex
100
AcDb2dVertex
 10
4.258140828840647
 20
6.785859238352037
 30
0.0
  0
VERTEX
  5
3F4
330
3EF
100
AcDbEntity
  8
LAYER_1
 62
     7
100
AcDbVertex
100
AcDb2dVertex
 10
4.256011378651671
 20
6.785153942748045
 30
0.0
  0
VERTEX
  5
3F5
330
3EF
100
AcDbEntity
  8
LAYER_1
 62
     7
100
AcDbVertex
100
AcDb2dVertex
 10
4.259551420048632
 20
6.77213988251669
 30
0.0
  0
VERTEX
  5
3F6
330
3EF
100
AcDbEntity
  8
LAYER_1
 62
     7
100
AcDbVertex
100
AcDb2dVertex
 10
4.278892795650417
 20
6.777416036169631
 30
0.0
  0
VERTEX
  5
3F7
330
3EF
100
AcDbEntity
  8
LAYER_1
 62
     7
100
AcDbVertex
100
AcDb2dVertex
 10
4.278187500046424
 20
6.779884570783604
 30
0.0
  0
VERTEX
  5
3F8
330
3EF
100
AcDbEntity
  8
LAYER_1
 62
     7
100
AcDbVertex
100
AcDb2dVertex
 10
4.269371304996522
 20
6.777416036169631
 30
0.0
  0
VERTEX
  5
3F9
330
3EF
100
AcDbEntity
  8
LAYER_1
 62
     7
100
AcDbVertex
100
AcDb2dVertex
 10
4.266929897136549
 20
6.78657131564453
 30
0.0
  0
VERTEX
  5
3FA
330
3EF
100
AcDbEntity
  8
LAYER_1
 62
     7
100
AcDbVertex
100
AcDb2dVertex
 10
4.264461362522576
 20
6.785859238352037
 30
0.0
  0
SEQEND
  5
3FB
330
3EF
100
AcDbEntity
  8
LAYER_1
  0
POLYLINE
  5
3FC
330
40
100
AcDbEntity
  8
LAYER_1
 62
     7
100
AcDb2dPolyline
 66
     1
 10
0.0
 20
0.0
 30
0.0
  0
VERTEX
  5
3FD
330
3FC
100
AcDbEntity
  8
LAYER_1
 62
     7
100
AcDbVertex
100
AcDb2dVertex
 10
4.428374773565753
 20
6.965607892042538
 30
0.0
  0
VERTEX
  5
3FE
330
3FC
100
AcDbEntity
  8
LAYER_1
 62
     7
100
AcDbVertex
100
AcDb2dVertex
 10
4.433298279416699
 20
6.965607892042538
 30
0.0
  0
VERTEX
  5
3FF
330
3FC
100
AcDbEntity
  8
LAYER_1
 62
     7
100
AcDbVertex
100
AcDb2dVertex
 10
4.433298279416699
 20
6.990578069099261
 30
0.0
  0
VERTEX
  5
400
330
3FC
100
AcDbEntity
  8
LAYER_1
 62
     7
100
AcDbVertex
100
AcDb2dVertex
 10
4.428374773565753
 20
6.990578069099261
 30
0.0
  0
VERTEX
  5
401
330
3FC
100
AcDbEntity
  8
LAYER_1
 62
     7
100
AcDbVertex
100
AcDb2dVertex
 10
4.428374773565753
 20
6.965607892042538
 30
0.0
  0
SEQEND
  5
402
330
3FC
100
AcDbEntity
  8
LAYER_1
  0
SPLINE
  5
403
330
40
100
AcDbEntity
  8
LAYER_1
 62
     7
100
AcDbSpline
210
0.0
220
0.0
230
1.0
 70
    11
 71
     3
 72
    11
 73
     7
 74
     0
 42
0.0000000001
 43
0.0000000001
 40
0.0
 40
0.0
 40
0.0
 40
0.0
 40
1.0
 40
1.0
 40
1.0
 40
2.0
 40
2.0
 40
2.0
 40
2.0
 10
4.267282544938546
 20
6.823504391215119
 30
0.0
 10
4.251467647356721
 20
6.823755313689616
 30
0.0
 10
4.249066929627748
 20
6.802487938553853
 30
0.0
 10
4.26412227809758
 20
6.798880080271893
 30
0.0
 10
4.281496964034387
 20
6.796187749937422
 30
0.0
 10
4.284711484383352
 20
6.821449539599642
 30
0.0
 10
4.267282544938546
 20
6.823504391215119
 30
0.0
  0
SPLINE
  5
404
330
40
100
AcDbEntity
  8
LAYER_1
 62
     7
100
AcDbSpline
210
0.0
220
0.0
230
1.0
 70
    11
 71
     3
 72
    11
 73
     7
 74
     0
 42
0.0000000001
 43
0.0000000001
 40
0.0
 40
0.0
 40
0.0
 40
0.0
 40
1.0
 40
1.0
 40
1.0
 40
2.0
 40
2.0
 40
2.0
 40
2.0
 10
4.266929897136549
 20
6.818580885364173
 30
0.0
 10
4.276478514544443
 20
6.817658575728184
 30
0.0
 10
4.276288627266445
 20
6.803552663648341
 30
0.0
 10
4.266224601532557
 20
6.803803586122838
 30
0.0
 10
4.25602494202867
 20
6.804061290285834
 30
0.0
 10
4.25694725166466
 20
6.819326871099165
 30
0.0
 10
4.266929897136549
 20
6.818580885364173
 30
0.0
  0
SPLINE
  5
405
330
40
100
AcDbEntity
  8
LAYER_1
 62
     7
100
AcDbSpline
210
0.0
220
0.0
230
1.0
 70
     8
 71
     3
 72
    47
 73
    43
 74
     0
 42
0.0000000001
 43
0.0000000001
 40
0.0
 40
0.0
 40
0.0
 40
0.0
 40
1.0
 40
1.0
 40
1.0
 40
2.0
 40
2.0
 40
2.0
 40
3.0
 40
3.0
 40
3.0
 40
4.0
 40
4.0
 40
4.0
 40
5.0
 40
5.0
 40
5.0
 40
6.0
 40
6.0
 40
6.0
 40
7.0
 40
7.0
 40
7.0
 40
8.0
 40
8.0
 40
8.0
 40
9.0
 40
9.0
 40
9.0
 40
10.0
 40
10.0
 40
10.0
 40
11.0
 40
11.0
 40
11.0
 40
12.0
 40
12.0
 40
12.0
 40
13.0
 40
13.0
 40
13.0
 40
14.0
 40
14.0
 40
14.0
 40
14.0
 10
4.741783725901269
 20
7.299755247810823
 30
0.0
 10
4.741783725901269
 20
7.299755247810823
 30
0.0
 10
4.741783725901269
 20
7.299402600008826
 30
0.0
 10
4.741783725901269
 20
7.299402600008826
 30
0.0
 10
4.741783725901269
 20
7.299402600008826
 30
0.0
 10
4.741051303543276
 20
7.299402600008826
 30
0.0
 10
4.741051303543276
 20
7.299402600008826
 30
0.0
 10
4.741051303543276
 20
7.299402600008826
 30
0.0
 10
4.74071221911828
 20
7.29904995220683
 30
0.0
 10
4.74071221911828
 20
7.29904995220683
 30
0.0
 10
4.74071221911828
 20
7.29904995220683
 30
0.0
 10
4.738609895683304
 20
7.29904995220683
 30
0.0
 10
4.738609895683304
 20
7.29904995220683
 30
0.0
 10
4.738609895683304
 20
7.29904995220683
 30
0.0
 10
4.737904600079312
 20
7.298697304404834
 30
0.0
 10
4.737904600079312
 20
7.298697304404834
 30
0.0
 10
4.737904600079312
 20
7.298697304404834
 30
0.0
 10
4.734025474257355
 20
7.298697304404834
 30
0.0
 10
4.734025474257355
 20
7.298697304404834
 30
0.0
 10
4.63200175246449
 20
7.304739788858267
 30
0.0
 10
4.534128424033578
 20
7.312342061666683
 30
0.0
 10
4.430829744802726
 20
7.311012850720697
 30
0.0
 10
4.32799222038987
 20
7.312104702569185
 30
0.0
 10
4.230471539760955
 20
7.305126345102763
 30
0.0
 10
4.128691958754087
 20
7.298697304404834
 30
0.0
 10
4.128691958754087
 20
7.298697304404834
 30
0.0
 10
4.123754889526142
 20
7.298697304404834
 30
0.0
 10
4.123754889526142
 20
7.298697304404834
 30
0.0
 10
4.123754889526142
 20
7.298697304404834
 30
0.0
 10
4.123063157299149
 20
7.29904995220683
 30
0.0
 10
4.123063157299149
 20
7.29904995220683
 30
0.0
 10
4.123063157299149
 20
7.29904995220683
 30
0.0
 10
4.121313481666169
 20
7.29904995220683
 30
0.0
 10
4.121313481666169
 20
7.29904995220683
 30
0.0
 10
4.121313481666169
 20
7.29904995220683
 30
0.0
 10
4.120960833864173
 20
7.299402600008826
 30
0.0
 10
4.120960833864173
 20
7.299402600008826
 30
0.0
 10
4.120960833864173
 20
7.299402600008826
 30
0.0
 10
4.120255538260181
 20
7.299402600008826
 30
0.0
 10
4.120255538260181
 20
7.299402600008826
 30
0.0
 10
4.120255538260181
 20
7.299402600008826
 30
0.0
 10
4.119902890458184
 20
7.299755247810823
 30
0.0
 10
4.119902890458184
 20
7.299755247810823
 30
0.0
  0
SPLINE
  5
406
330
40
100
AcDbEntity
  8
LAYER_1
 62
     7
100
AcDbSpline
210
0.0
220
0.0
230
1.0
 70
     8
 71
     3
 72
     8
 73
     4
 74
     0
 42
0.0000000001
 43
0.0000000001
 40
0.0
 40
0.0
 40
0.0
 40
0.0
 40
1.0
 40
1.0
 40
1.0
 40
1.0
 10
4.145917447543895
 20
6.223094381562795
 30
0.0
 10
4.336360823998777
 20
6.207577878274968
 30
0.0
 10
4.525692003539672
 20
6.207605005028968
 30
0.0
 10
4.716094689863554
 20
6.223094381562795
 30
0.0
  0
SPLINE
  5
407
330
40
100
AcDbEntity
  8
LAYER_1
 62
     7
100
AcDbSpline
210
0.0
220
0.0
230
1.0
 70
     8
 71
     3
 72
    26
 73
    22
 74
     0
 42
0.0000000001
 43
0.0000000001
 40
0.0
 40
0.0
 40
0.0
 40
0.0
 40
1.0
 40
1.0
 40
1.0
 40
2.0
 40
2.0
 40
2.0
 40
3.0
 40
3.0
 40
3.0
 40
4.0
 40
4.0
 40
4.0
 40
5.0
 40
5.0
 40
5.0
 40
6.0
 40
6.0
 40
6.0
 40
7.0
 40
7.0
 40
7.0
 40
7.0
 10
4.716094689863554
 20
6.223094381562795
 30
0.0
 10
4.722089702497487
 20
6.223182543513294
 30
0.0
 10
4.728016898246421
 20
6.223996346133285
 30
0.0
 10
4.734025474257355
 20
6.223779332101288
 30
0.0
 10
4.734025474257355
 20
6.223779332101288
 30
0.0
 10
4.7389625434853
 20
6.223779332101288
 30
0.0
 10
4.7389625434853
 20
6.223779332101288
 30
0.0
 10
4.7389625434853
 20
6.223779332101288
 30
0.0
 10
4.739288064533296
 20
6.223419902610792
 30
0.0
 10
4.739288064533296
 20
6.223419902610792
 30
0.0
 10
4.739288064533296
 20
6.223419902610792
 30
0.0
 10
4.741051303543276
 20
6.223419902610792
 30
0.0
 10
4.741051303543276
 20
6.223419902610792
 30
0.0
 10
4.741051303543276
 20
6.223419902610792
 30
0.0
 10
4.741431078099272
 20
6.223094381562795
 30
0.0
 10
4.741431078099272
 20
6.223094381562795
 30
0.0
 10
4.741431078099272
 20
6.223094381562795
 30
0.0
 10
4.741783725901269
 20
6.223094381562795
 30
0.0
 10
4.741783725901269
 20
6.223094381562795
 30
0.0
 10
4.741783725901269
 20
6.223094381562795
 30
0.0
 10
4.741783725901269
 20
6.2227281703838
 30
0.0
 10
4.741783725901269
 20
6.2227281703838
 30
0.0
  0
SPLINE
  5
408
330
40
100
AcDbEntity
  8
LAYER_1
 62
     7
100
AcDbSpline
210
0.0
220
0.0
230
1.0
 70
     8
 71
     3
 72
    26
 73
    22
 74
     0
 42
0.0000000001
 43
0.0000000001
 40
0.0
 40
0.0
 40
0.0
 40
0.0
 40
1.0
 40
1.0
 40
1.0
 40
2.0
 40
2.0
 40
2.0
 40
3.0
 40
3.0
 40
3.0
 40
4.0
 40
4.0
 40
4.0
 40
5.0
 40
5.0
 40
5.0
 40
6.0
 40
6.0
 40
6.0
 40
7.0
 40
7.0
 40
7.0
 40
7.0
 10
4.119902890458184
 20
6.2227281703838
 30
0.0
 10
4.119902890458184
 20
6.2227281703838
 30
0.0
 10
4.120255538260181
 20
6.223094381562795
 30
0.0
 10
4.120255538260181
 20
6.223094381562795
 30
0.0
 10
4.120255538260181
 20
6.223094381562795
 30
0.0
 10
4.120594622685177
 20
6.223094381562795
 30
0.0
 10
4.120594622685177
 20
6.223094381562795
 30
0.0
 10
4.120594622685177
 20
6.223094381562795
 30
0.0
 10
4.120960833864173
 20
6.223419902610792
 30
0.0
 10
4.120960833864173
 20
6.223419902610792
 30
0.0
 10
4.120960833864173
 20
6.223419902610792
 30
0.0
 10
4.122724072874153
 20
6.223419902610792
 30
0.0
 10
4.122724072874153
 20
6.223419902610792
 30
0.0
 10
4.122724072874153
 20
6.223419902610792
 30
0.0
 10
4.123063157299149
 20
6.223779332101288
 30
0.0
 10
4.123063157299149
 20
6.223779332101288
 30
0.0
 10
4.123063157299149
 20
6.223779332101288
 30
0.0
 10
4.126236987517114
 20
6.223779332101288
 30
0.0
 10
4.126236987517114
 20
6.223779332101288
 30
0.0
 10
4.13285591549304
 20
6.223996346133285
 30
0.0
 10
4.139339209698968
 20
6.223257142086793
 30
0.0
 10
4.145917447543895
 20
6.223094381562795
 30
0.0
  0
SPLINE
  5
409
330
40
100
AcDbEntity
  8
LAYER_1
 62
     7
100
AcDbSpline
210
0.0
220
0.0
230
1.0
 70
    11
 71
     3
 72
    89
 73
    85
 74
     0
 42
0.0000000001
 43
0.0000000001
 40
0.0
 40
0.0
 40
0.0
 40
0.0
 40
1.0
 40
1.0
 40
1.0
 40
2.0
 40
2.0
 40
2.0
 40
3.0
 40
3.0
 40
3.0
 40
4.0
 40
4.0
 40
4.0
 40
5.0
 40
5.0
 40
5.0
 40
6.0
 40
6.0
 40
6.0
 40
7.0
 40
7.0
 40
7.0
 40
8.0
 40
8.0
 40
8.0
 40
9.0
 40
9.0
 40
9.0
 40
10.0
 40
10.0
 40
10.0
 40
11.0
 40
11.0
 40
11.0
 40
12.0
 40
12.0
 40
12.0
 40
13.0
 40
13.0
 40
13.0
 40
14.0
 40
14.0
 40
14.0
 40
15.0
 40
15.0
 40
15.0
 40
16.0
 40
16.0
 40
16.0
 40
17.0
 40
17.0
 40
17.0
 40
18.0
 40
18.0
 40
18.0
 40
19.0
 40
19.0
 40
19.0
 40
20.0
 40
20.0
 40
20.0
 40
21.0
 40
21.0
 40
21.0
 40
22.0
 40
22.0
 40
22.0
 40
23.0
 40
23.0
 40
23.0
 40
24.0
 40
24.0
 40
24.0
 40
25.0
 40
25.0
 40
25.0
 40
26.0
 40
26.0
 40
26.0
 40
27.0
 40
27.0
 40
27.0
 40
28.0
 40
28.0
 40
28.0
 40
28.0
 10
4.027048011517217
 20
6.157996953652019
 30
0.0
 10
4.027454912827213
 20
6.143151837525685
 30
0.0
 10
4.032039334253161
 20
6.133833797526788
 30
0.0
 10
4.041804965693053
 20
6.12283389877991
 30
0.0
 10
4.041804965693053
 20
6.12283389877991
 30
0.0
 10
4.047799978326986
 20
6.117903611240465
 30
0.0
 10
4.047799978326986
 20
6.117903611240465
 30
0.0
 10
4.047799978326986
 20
6.117903611240465
 30
0.0
 10
4.054486723187912
 20
6.113685400993512
 30
0.0
 10
4.054486723187912
 20
6.113685400993512
 30
0.0
 10
4.054486723187912
 20
6.113685400993512
 30
0.0
 10
4.061526115850834
 20
6.110871000266044
 30
0.0
 10
4.061526115850834
 20
6.110871000266044
 30
0.0
 10
4.061526115850834
 20
6.110871000266044
 30
0.0
 10
4.069243677363747
 20
6.108775458519567
 30
0.0
 10
4.069243677363747
 20
6.108775458519567
 30
0.0
 10
4.069243677363747
 20
6.108775458519567
 30
0.0
 10
4.076988365630662
 20
6.108416029029071
 30
0.0
 10
4.076988365630662
 20
6.108416029029071
 30
0.0
 10
4.076988365630662
 20
6.108416029029071
 30
0.0
 10
4.785050898530788
 20
6.108416029029071
 30
0.0
 10
4.785050898530788
 20
6.108416029029071
 30
0.0
 10
4.796742529504657
 20
6.107534409524081
 30
0.0
 10
4.812042018760487
 20
6.114505985302003
 30
0.0
 10
4.820207171714396
 20
6.12283389877991
 30
0.0
 10
4.820207171714396
 20
6.12283389877991
 30
0.0
 10
4.825130677565341
 20
6.128828911413843
 30
0.0
 10
4.825130677565341
 20
6.128828911413843
 30
0.0
 10
4.825130677565341
 20
6.128828911413843
 30
0.0
 10
4.829348887812294
 20
6.135502092897769
 30
0.0
 10
4.829348887812294
 20
6.135502092897769
 30
0.0
 10
4.829348887812294
 20
6.135502092897769
 30
0.0
 10
4.832170070228264
 20
6.142541485560692
 30
0.0
 10
4.832170070228264
 20
6.142541485560692
 30
0.0
 10
4.832170070228264
 20
6.142541485560692
 30
0.0
 10
4.834285957040239
 20
6.150286173827605
 30
0.0
 10
4.834285957040239
 20
6.150286173827605
 30
0.0
 10
4.834285957040239
 20
6.150286173827605
 30
0.0
 10
4.834638604842236
 20
6.157996953652019
 30
0.0
 10
4.834638604842236
 20
6.157996953652019
 30
0.0
 10
4.834638604842236
 20
6.157996953652019
 30
0.0
 10
4.834638604842236
 20
7.364466119477103
 30
0.0
 10
4.834638604842236
 20
7.364466119477103
 30
0.0
 10
4.835438844085227
 20
7.376761320727466
 30
0.0
 10
4.828752099224301
 20
7.390982521511808
 30
0.0
 10
4.820207171714396
 20
7.399649519414711
 30
0.0
 10
4.820207171714396
 20
7.399649519414711
 30
0.0
 10
4.814225722457463
 20
7.404573025265656
 30
0.0
 10
4.814225722457463
 20
7.404573025265656
 30
0.0
 10
4.814225722457463
 20
7.404573025265656
 30
0.0
 10
4.807538977596537
 20
7.40879123551261
 30
0.0
 10
4.807538977596537
 20
7.40879123551261
 30
0.0
 10
4.807538977596537
 20
7.40879123551261
 30
0.0
 10
4.800160500508619
 20
7.411951502353575
 30
0.0
 10
4.800160500508619
 20
7.411951502353575
 30
0.0
 10
4.800160500508619
 20
7.411951502353575
 30
0.0
 10
4.792782023420702
 20
7.413721523052055
 30
0.0
 10
4.792782023420702
 20
7.413721523052055
 30
0.0
 10
4.792782023420702
 20
7.413721523052055
 30
0.0
 10
4.785050898530788
 20
7.414420036967547
 30
0.0
 10
4.785050898530788
 20
7.414420036967547
 30
0.0
 10
4.785050898530788
 20
7.414420036967547
 30
0.0
 10
4.076988365630662
 20
7.414420036967547
 30
0.0
 10
4.076988365630662
 20
7.414420036967547
 30
0.0
 10
4.062109341061827
 20
7.413986008903552
 30
0.0
 10
4.052818427816931
 20
7.409401587477603
 30
0.0
 10
4.041804965693053
 20
7.399649519414711
 30
0.0
 10
4.041804965693053
 20
7.399649519414711
 30
0.0
 10
4.036895023219107
 20
7.393661288469279
 30
0.0
 10
4.036895023219107
 20
7.393661288469279
 30
0.0
 10
4.036895023219107
 20
7.393661288469279
 30
0.0
 10
4.032663249595155
 20
7.386974543608352
 30
0.0
 10
4.032663249595155
 20
7.386974543608352
 30
0.0
 10
4.032663249595155
 20
7.386974543608352
 30
0.0
 10
4.02950298275419
 20
7.379955496010931
 30
0.0
 10
4.02950298275419
 20
7.379955496010931
 30
0.0
 10
4.02950298275419
 20
7.379955496010931
 30
0.0
 10
4.027753307121209
 20
7.372210807744016
 30
0.0
 10
4.027753307121209
 20
7.372210807744016
 30
0.0
 10
4.027753307121209
 20
7.372210807744016
 30
0.0
 10
4.027048011517217
 20
7.364466119477103
 30
0.0
 10
4.027048011517217
 20
7.364466119477103
 30
0.0
 10
4.027048011517217
 20
7.364466119477103
 30
0.0
 10
4.027048011517217
 20
6.157996953652019
 30
0.0
 10
4.027048011517217
 20
6.157996953652019
 30
0.0
  0
SPLINE
  5
40A
330
40
100
AcDbEntity
  8
LAYER_1
 62
     7
100
AcDbSpline
210
0.0
220
0.0
230
1.0
 70
    11
 71
     3
 72
    11
 73
     7
 74
     0
 42
0.0000000001
 43
0.0000000001
 40
0.0
 40
0.0
 40
0.0
 40
0.0
 40
1.0
 40
1.0
 40
1.0
 40
2.0
 40
2.0
 40
2.0
 40
2.0
 10
4.093155911014482
 20
7.36200436655163
 30
0.0
 10
4.092043714100494
 20
7.37640189123697
 30
0.0
 10
4.072132676664715
 20
7.37641545461397
 30
0.0
 10
4.071006916373728
 20
7.36200436655163
 30
0.0
 10
4.07172577535472
 20
7.347410172899792
 30
0.0
 10
4.09243705203349
 20
7.347389827834292
 30
0.0
 10
4.093155911014482
 20
7.36200436655163
 30
0.0
  0
SPLINE
  5
40B
330
40
100
AcDbEntity
  8
LAYER_1
 62
     7
100
AcDbSpline
210
0.0
220
0.0
230
1.0
 70
    11
 71
     3
 72
    11
 73
     7
 74
     0
 42
0.0000000001
 43
0.0000000001
 40
0.0
 40
0.0
 40
0.0
 40
0.0
 40
1.0
 40
1.0
 40
1.0
 40
2.0
 40
2.0
 40
2.0
 40
2.0
 10
4.103002922716372
 20
7.36200436655163
 30
0.0
 10
4.101931415933384
 20
7.389415951468325
 30
0.0
 10
4.062122904438827
 20
7.389626183811823
 30
0.0
 10
4.061159904671838
 20
7.36200436655163
 30
0.0
 10
4.062638312764821
 20
7.333826450834444
 30
0.0
 10
4.10145669773839
 20
7.33411128175144
 30
0.0
 10
4.103002922716372
 20
7.36200436655163
 30
0.0
  0
SPLINE
  5
40C
330
40
100
AcDbEntity
  8
LAYER_1
 62
     7
100
AcDbSpline
210
0.0
220
0.0
230
1.0
 70
    11
 71
     3
 72
    11
 73
     7
 74
     0
 42
0.0000000001
 43
0.0000000001
 40
0.0
 40
0.0
 40
0.0
 40
0.0
 40
1.0
 40
1.0
 40
1.0
 40
2.0
 40
2.0
 40
2.0
 40
2.0
 10
4.093155911014482
 20
6.160472269954492
 30
0.0
 10
4.09240992527949
 20
6.175344512834826
 30
0.0
 10
4.07178002886272
 20
6.175351294523327
 30
0.0
 10
4.071006916373728
 20
6.160472269954492
 30
0.0
 10
4.072132676664715
 20
6.146061181892152
 30
0.0
 10
4.092043714100494
 20
6.146074745269152
 30
0.0
 10
4.093155911014482
 20
6.160472269954492
 30
0.0
  0
SPLINE
  5
40D
330
40
100
AcDbEntity
  8
LAYER_1
 62
     7
100
AcDbSpline
210
0.0
220
0.0
230
1.0
 70
    11
 71
     3
 72
    11
 73
     7
 74
     0
 42
0.0000000001
 43
0.0000000001
 40
0.0
 40
0.0
 40
0.0
 40
0.0
 40
1.0
 40
1.0
 40
1.0
 40
2.0
 40
2.0
 40
2.0
 40
2.0
 10
4.103002922716372
 20
6.160472269954492
 30
0.0
 10
4.10145669773839
 20
6.188365354754682
 30
0.0
 10
4.062638312764821
 20
6.188670530737178
 30
0.0
 10
4.061159904671838
 20
6.160472269954492
 30
0.0
 10
4.062475552240823
 20
6.132836889317299
 30
0.0
 10
4.101565204754388
 20
6.133026776595297
 30
0.0
 10
4.103002922716372
 20
6.160472269954492
 30
0.0
  0
SPLINE
  5
40E
330
40
100
AcDbEntity
  8
LAYER_1
 62
     7
100
AcDbSpline
210
0.0
220
0.0
230
1.0
 70
    11
 71
     3
 72
    11
 73
     7
 74
     0
 42
0.0000000001
 43
0.0000000001
 40
0.0
 40
0.0
 40
0.0
 40
0.0
 40
1.0
 40
1.0
 40
1.0
 40
2.0
 40
2.0
 40
2.0
 40
2.0
 10
4.791018784410721
 20
7.36200436655163
 30
0.0
 10
4.789879460742734
 20
7.37640189123697
 30
0.0
 10
4.769995550060955
 20
7.37641545461397
 30
0.0
 10
4.768829099638968
 20
7.36200436655163
 30
0.0
 10
4.769575085373959
 20
7.347410172899792
 30
0.0
 10
4.790286362052729
 20
7.347389827834292
 30
0.0
 10
4.791018784410721
 20
7.36200436655163
 30
0.0
  0
SPLINE
  5
40F
330
40
100
AcDbEntity
  8
LAYER_1
 62
     7
100
AcDbSpline
210
0.0
220
0.0
230
1.0
 70
    11
 71
     3
 72
    11
 73
     7
 74
     0
 42
0.0000000001
 43
0.0000000001
 40
0.0
 40
0.0
 40
0.0
 40
0.0
 40
1.0
 40
1.0
 40
1.0
 40
2.0
 40
2.0
 40
2.0
 40
2.0
 10
4.800865796112611
 20
7.36200436655163
 30
0.0
 10
4.799780725952624
 20
7.389415951468325
 30
0.0
 10
4.759972214458066
 20
7.389626183811823
 30
0.0
 10
4.759009214691077
 20
7.36200436655163
 30
0.0
 10
4.760460496030061
 20
7.333826450834444
 30
0.0
 10
4.799306007757629
 20
7.33411128175144
 30
0.0
 10
4.800865796112611
 20
7.36200436655163
 30
0.0
  0
POLYLINE
  5
410
330
40
100
AcDbEntity
  8
LAYER_1
 62
     7
100
AcDb2dPolyline
 66
     1
 10
0.0
 20
0.0
 30
0.0
  0
VERTEX
  5
411
330
410
100
AcDbEntity
  8
LAYER_1
 62
     7
100
AcDbVertex
100
AcDb2dVertex
 10
4.741783725901269
 20
7.299755247810823
 30
0.0
  0
VERTEX
  5
412
330
410
100
AcDbEntity
  8
LAYER_1
 62
     7
100
AcDbVertex
100
AcDb2dVertex
 10
4.741783725901269
 20
6.2227281703838
 30
0.0
  0
SEQEND
  5
413
330
410
100
AcDbEntity
  8
LAYER_1
  0
POLYLINE
  5
414
330
40
100
AcDbEntity
  8
LAYER_1
 62
     7
100
AcDb2dPolyline
 66
     1
 10
0.0
 20
0.0
 30
0.0
  0
VERTEX
  5
415
330
414
100
AcDbEntity
  8
LAYER_1
 62
     7
100
AcDbVertex
100
AcDb2dVertex
 10
4.119902890458184
 20
6.2227281703838
 30
0.0
  0
VERTEX
  5
416
330
414
100
AcDbEntity
  8
LAYER_1
 62
     7
100
AcDbVertex
100
AcDb2dVertex
 10
4.119902890458184
 20
7.299755247810823
 30
0.0
  0
SEQEND
  5
417
330
414
100
AcDbEntity
  8
LAYER_1
  0
SPLINE
  5
418
330
40
100
AcDbEntity
  8
LAYER_1
 62
     7
100
AcDbSpline
210
0.0
220
0.0
230
1.0
 70
    11
 71
     3
 72
    11
 73
     7
 74
     0
 42
0.0000000001
 43
0.0000000001
 40
0.0
 40
0.0
 40
0.0
 40
0.0
 40
1.0
 40
1.0
 40
1.0
 40
2.0
 40
2.0
 40
2.0
 40
2.0
 10
4.800865796112611
 20
6.160472269954492
 30
0.0
 10
4.799306007757629
 20
6.188365354754682
 30
0.0
 10
4.760460496030061
 20
6.188670530737178
 30
0.0
 10
4.759009214691077
 20
6.160472269954492
 30
0.0
 10
4.760311298883063
 20
6.132836889317299
 30
0.0
 10
4.799428078150627
 20
6.133026776595297
 30
0.0
 10
4.800865796112611
 20
6.160472269954492
 30
0.0
  0
SPLINE
  5
419
330
40
100
AcDbEntity
  8
LAYER_1
 62
     7
100
AcDbSpline
210
0.0
220
0.0
230
1.0
 70
    11
 71
     3
 72
    11
 73
     7
 74
     0
 42
0.0000000001
 43
0.0000000001
 40
0.0
 40
0.0
 40
0.0
 40
0.0
 40
1.0
 40
1.0
 40
1.0
 40
2.0
 40
2.0
 40
2.0
 40
2.0
 10
4.791018784410721
 20
6.160472269954492
 30
0.0
 10
4.79023210854473
 20
6.175344512834826
 30
0.0
 10
4.769615775504959
 20
6.175371639588827
 30
0.0
 10
4.768829099638968
 20
6.160472269954492
 30
0.0
 10
4.769995550060955
 20
6.146061181892152
 30
0.0
 10
4.789879460742734
 20
6.146074745269152
 30
0.0
 10
4.791018784410721
 20
6.160472269954492
 30
0.0
  0
POLYLINE
  5
41A
330
40
100
AcDbEntity
  8
LAYER_1
 62
     7
100
AcDb2dPolyline
 66
     1
 10
0.0
 20
0.0
 30
0.0
  0
VERTEX
  5
41B
330
41A
100
AcDbEntity
  8
LAYER_1
 62
     7
100
AcDbVertex
100
AcDb2dVertex
 10
4.085424786124568
 20
7.36200436655163
 30
0.0
  0
VERTEX
  5
41C
330
41A
100
AcDbEntity
  8
LAYER_1
 62
     7
100
AcDbVertex
100
AcDb2dVertex
 10
4.084719490520576
 20
7.363421739448114
 30
0.0
  0
VERTEX
  5
41D
330
41A
100
AcDbEntity
  8
LAYER_1
 62
     7
100
AcDbVertex
100
AcDb2dVertex
 10
4.083661547114588
 20
7.364825548967599
 30
0.0
  0
VERTEX
  5
41E
330
41A
100
AcDbEntity
  8
LAYER_1
 62
     7
100
AcDbVertex
100
AcDb2dVertex
 10
4.081925434858607
 20
7.365178196769595
 30
0.0
  0
VERTEX
  5
41F
330
41A
100
AcDbEntity
  8
LAYER_1
 62
     7
100
AcDbVertex
100
AcDb2dVertex
 10
4.080487716896623
 20
7.364825548967599
 30
0.0
  0
VERTEX
  5
420
330
41A
100
AcDbEntity
  8
LAYER_1
 62
     7
100
AcDbVertex
100
AcDb2dVertex
 10
4.079104252442638
 20
7.363421739448114
 30
0.0
  0
VERTEX
  5
421
330
41A
100
AcDbEntity
  8
LAYER_1
 62
     7
100
AcDbVertex
100
AcDb2dVertex
 10
4.078738041263642
 20
7.36200436655163
 30
0.0
  0
VERTEX
  5
422
330
41A
100
AcDbEntity
  8
LAYER_1
 62
     7
100
AcDbVertex
100
AcDb2dVertex
 10
4.079104252442638
 20
7.36024790923015
 30
0.0
  0
VERTEX
  5
423
330
41A
100
AcDbEntity
  8
LAYER_1
 62
     7
100
AcDbVertex
100
AcDb2dVertex
 10
4.080487716896623
 20
7.359189965824162
 30
0.0
  0
VERTEX
  5
424
330
41A
100
AcDbEntity
  8
LAYER_1
 62
     7
100
AcDbVertex
100
AcDb2dVertex
 10
4.081925434858607
 20
7.358837318022165
 30
0.0
  0
VERTEX
  5
425
330
41A
100
AcDbEntity
  8
LAYER_1
 62
     7
100
AcDbVertex
100
AcDb2dVertex
 10
4.083661547114588
 20
7.359189965824162
 30
0.0
  0
VERTEX
  5
426
330
41A
100
AcDbEntity
  8
LAYER_1
 62
     7
100
AcDbVertex
100
AcDb2dVertex
 10
4.084719490520576
 20
7.36024790923015
 30
0.0
  0
VERTEX
  5
427
330
41A
100
AcDbEntity
  8
LAYER_1
 62
     7
100
AcDbVertex
100
AcDb2dVertex
 10
4.085424786124568
 20
7.36200436655163
 30
0.0
  0
SEQEND
  5
428
330
41A
100
AcDbEntity
  8
LAYER_1
  0
POLYLINE
  5
429
330
40
100
AcDbEntity
  8
LAYER_1
 62
     7
100
AcDb2dPolyline
 66
     1
 10
0.0
 20
0.0
 30
0.0
  0
VERTEX
  5
42A
330
429
100
AcDbEntity
  8
LAYER_1
 62
     7
100
AcDbVertex
100
AcDb2dVertex
 10
4.085424786124568
 20
6.160472269954492
 30
0.0
  0
VERTEX
  5
42B
330
429
100
AcDbEntity
  8
LAYER_1
 62
     7
100
AcDbVertex
100
AcDb2dVertex
 10
4.084719490520576
 20
6.162221945587472
 30
0.0
  0
VERTEX
  5
42C
330
429
100
AcDbEntity
  8
LAYER_1
 62
     7
100
AcDbVertex
100
AcDb2dVertex
 10
4.083661547114588
 20
6.163286670681961
 30
0.0
  0
VERTEX
  5
42D
330
429
100
AcDbEntity
  8
LAYER_1
 62
     7
100
AcDbVertex
100
AcDb2dVertex
 10
4.081925434858607
 20
6.163985184597453
 30
0.0
  0
VERTEX
  5
42E
330
429
100
AcDbEntity
  8
LAYER_1
 62
     7
100
AcDbVertex
100
AcDb2dVertex
 10
4.080487716896623
 20
6.163286670681961
 30
0.0
  0
VERTEX
  5
42F
330
429
100
AcDbEntity
  8
LAYER_1
 62
     7
100
AcDbVertex
100
AcDb2dVertex
 10
4.079104252442638
 20
6.162221945587472
 30
0.0
  0
VERTEX
  5
430
330
429
100
AcDbEntity
  8
LAYER_1
 62
     7
100
AcDbVertex
100
AcDb2dVertex
 10
4.078738041263642
 20
6.160472269954492
 30
0.0
  0
VERTEX
  5
431
330
429
100
AcDbEntity
  8
LAYER_1
 62
     7
100
AcDbVertex
100
AcDb2dVertex
 10
4.079104252442638
 20
6.159048115369508
 30
0.0
  0
VERTEX
  5
432
330
429
100
AcDbEntity
  8
LAYER_1
 62
     7
100
AcDbVertex
100
AcDb2dVertex
 10
4.080487716896623
 20
6.157664650915523
 30
0.0
  0
VERTEX
  5
433
330
429
100
AcDbEntity
  8
LAYER_1
 62
     7
100
AcDbVertex
100
AcDb2dVertex
 10
4.081925434858607
 20
6.157312003113527
 30
0.0
  0
VERTEX
  5
434
330
429
100
AcDbEntity
  8
LAYER_1
 62
     7
100
AcDbVertex
100
AcDb2dVertex
 10
4.083661547114588
 20
6.157664650915523
 30
0.0
  0
VERTEX
  5
435
330
429
100
AcDbEntity
  8
LAYER_1
 62
     7
100
AcDbVertex
100
AcDb2dVertex
 10
4.084719490520576
 20
6.159048115369508
 30
0.0
  0
VERTEX
  5
436
330
429
100
AcDbEntity
  8
LAYER_1
 62
     7
100
AcDbVertex
100
AcDb2dVertex
 10
4.085424786124568
 20
6.160472269954492
 30
0.0
  0
SEQEND
  5
437
330
429
100
AcDbEntity
  8
LAYER_1
  0
POLYLINE
  5
438
330
40
100
AcDbEntity
  8
LAYER_1
 62
     7
100
AcDb2dPolyline
 66
     1
 10
0.0
 20
0.0
 30
0.0
  0
VERTEX
  5
439
330
438
100
AcDbEntity
  8
LAYER_1
 62
     7
100
AcDbVertex
100
AcDb2dVertex
 10
4.783260532766807
 20
7.36200436655163
 30
0.0
  0
VERTEX
  5
43A
330
438
100
AcDbEntity
  8
LAYER_1
 62
     7
100
AcDbVertex
100
AcDb2dVertex
 10
4.782582363916815
 20
7.363421739448114
 30
0.0
  0
VERTEX
  5
43B
330
438
100
AcDbEntity
  8
LAYER_1
 62
     7
100
AcDbVertex
100
AcDb2dVertex
 10
4.781510857133827
 20
7.364825548967599
 30
0.0
  0
VERTEX
  5
43C
330
438
100
AcDbEntity
  8
LAYER_1
 62
     7
100
AcDbVertex
100
AcDb2dVertex
 10
4.779761181500846
 20
7.365178196769595
 30
0.0
  0
VERTEX
  5
43D
330
438
100
AcDbEntity
  8
LAYER_1
 62
     7
100
AcDbVertex
100
AcDb2dVertex
 10
4.778350590292862
 20
7.364825548967599
 30
0.0
  0
VERTEX
  5
43E
330
438
100
AcDbEntity
  8
LAYER_1
 62
     7
100
AcDbVertex
100
AcDb2dVertex
 10
4.776939999084878
 20
7.363421739448114
 30
0.0
  0
VERTEX
  5
43F
330
438
100
AcDbEntity
  8
LAYER_1
 62
     7
100
AcDbVertex
100
AcDb2dVertex
 10
4.776587351282881
 20
7.36200436655163
 30
0.0
  0
VERTEX
  5
440
330
438
100
AcDbEntity
  8
LAYER_1
 62
     7
100
AcDbVertex
100
AcDb2dVertex
 10
4.776939999084878
 20
7.36024790923015
 30
0.0
  0
VERTEX
  5
441
330
438
100
AcDbEntity
  8
LAYER_1
 62
     7
100
AcDbVertex
100
AcDb2dVertex
 10
4.778350590292862
 20
7.359189965824162
 30
0.0
  0
VERTEX
  5
442
330
438
100
AcDbEntity
  8
LAYER_1
 62
     7
100
AcDbVertex
100
AcDb2dVertex
 10
4.779761181500846
 20
7.358837318022165
 30
0.0
  0
VERTEX
  5
443
330
438
100
AcDbEntity
  8
LAYER_1
 62
     7
100
AcDbVertex
100
AcDb2dVertex
 10
4.781510857133827
 20
7.359189965824162
 30
0.0
  0
VERTEX
  5
444
330
438
100
AcDbEntity
  8
LAYER_1
 62
     7
100
AcDbVertex
100
AcDb2dVertex
 10
4.782582363916815
 20
7.36024790923015
 30
0.0
  0
VERTEX
  5
445
330
438
100
AcDbEntity
  8
LAYER_1
 62
     7
100
AcDbVertex
100
AcDb2dVertex
 10
4.783260532766807
 20
7.36200436655163
 30
0.0
  0
SEQEND
  5
446
330
438
100
AcDbEntity
  8
LAYER_1
  0
POLYLINE
  5
447
330
40
100
AcDbEntity
  8
LAYER_1
 62
     7
100
AcDb2dPolyline
 66
     1
 10
0.0
 20
0.0
 30
0.0
  0
VERTEX
  5
448
330
447
100
AcDbEntity
  8
LAYER_1
 62
     7
100
AcDbVertex
100
AcDb2dVertex
 10
4.783260532766807
 20
6.160472269954492
 30
0.0
  0
VERTEX
  5
449
330
447
100
AcDbEntity
  8
LAYER_1
 62
     7
100
AcDbVertex
100
AcDb2dVertex
 10
4.782582363916815
 20
6.162221945587472
 30
0.0
  0
VERTEX
  5
44A
330
447
100
AcDbEntity
  8
LAYER_1
 62
     7
100
AcDbVertex
100
AcDb2dVertex
 10
4.781510857133827
 20
6.163286670681961
 30
0.0
  0
VERTEX
  5
44B
330
447
100
AcDbEntity
  8
LAYER_1
 62
     7
100
AcDbVertex
100
AcDb2dVertex
 10
4.779761181500846
 20
6.163985184597453
 30
0.0
  0
VERTEX
  5
44C
330
447
100
AcDbEntity
  8
LAYER_1
 62
     7
100
AcDbVertex
100
AcDb2dVertex
 10
4.778350590292862
 20
6.163286670681961
 30
0.0
  0
VERTEX
  5
44D
330
447
100
AcDbEntity
  8
LAYER_1
 62
     7
100
AcDbVertex
100
AcDb2dVertex
 10
4.776939999084878
 20
6.162221945587472
 30
0.0
  0
VERTEX
  5
44E
330
447
100
AcDbEntity
  8
LAYER_1
 62
     7
100
AcDbVertex
100
AcDb2dVertex
 10
4.776587351282881
 20
6.160472269954492
 30
0.0
  0
VERTEX
  5
44F
330
447
100
AcDbEntity
  8
LAYER_1
 62
     7
100
AcDbVertex
100
AcDb2dVertex
 10
4.776939999084878
 20
6.159048115369508
 30
0.0
  0
VERTEX
  5
450
330
447
100
AcDbEntity
  8
LAYER_1
 62
     7
100
AcDbVertex
100
AcDb2dVertex
 10
4.778350590292862
 20
6.157664650915523
 30
0.0
  0
VERTEX
  5
451
330
447
100
AcDbEntity
  8
LAYER_1
 62
     7
100
AcDbVertex
100
AcDb2dVertex
 10
4.779761181500846
 20
6.157312003113527
 30
0.0
  0
VERTEX
  5
452
330
447
100
AcDbEntity
  8
LAYER_1
 62
     7
100
AcDbVertex
100
AcDb2dVertex
 10
4.781510857133827
 20
6.157664650915523
 30
0.0
  0
VERTEX
  5
453
330
447
100
AcDbEntity
  8
LAYER_1
 62
     7
100
AcDbVertex
100
AcDb2dVertex
 10
4.782582363916815
 20
6.159048115369508
 30
0.0
  0
VERTEX
  5
454
330
447
100
AcDbEntity
  8
LAYER_1
 62
     7
100
AcDbVertex
100
AcDb2dVertex
 10
4.783260532766807
 20
6.160472269954492
 30
0.0
  0
SEQEND
  5
455
330
447
100
AcDbEntity
  8
LAYER_1
  0
ENDBLK
  5
43
330
40
100
AcDbEntity
  8
0
100
AcDbBlockEnd
  0
BLOCK
  5
468
330
466
100
AcDbEntity
  8
0
100
AcDbBlockBegin
  2
BLOCK_4
 70
     0
 71
     0
 10
0.0
 20
0.0
 30
0.0
  3
BLOCK_4
  1

  0
SPLINE
  5
46A
330
466
100
AcDbEntity
  8
LAYER_1
 62
     7
100
AcDbSpline
210
0.0
220
0.0
230
1.0
 70
     8
 71
     3
 72
    29
 73
    25
 74
     0
 42
0.0000000001
 43
0.0000000001
 40
0.0
 40
0.0
 40
0.0
 40
0.0
 40
1.0
 40
1.0
 40
1.0
 40
2.0
 40
2.0
 40
2.0
 40
3.0
 40
3.0
 40
3.0
 40
4.0
 40
4.0
 40
4.0
 40
5.0
 40
5.0
 40
5.0
 40
6.0
 40
6.0
 40
6.0
 40
7.0
 40
7.0
 40
7.0
 40
8.0
 40
8.0
 40
8.0
 40
8.0
 10
6.084612302394335
 20
6.811182063210755
 30
0.0
 10
6.084680119279334
 20
6.817800991186682
 30
0.0
 10
6.082930443646354
 20
6.828977213834558
 30
0.0
 10
6.080380528770383
 20
6.835107860238489
 30
0.0
 10
6.080163514738385
 20
6.837081331591968
 30
0.0
 10
6.079363275495393
 20
6.836932134444969
 30
0.0
 10
6.078644416514402
 20
6.839319288796943
 30
0.0
 10
6.078644416514402
 20
6.839319288796943
 30
0.0
 10
6.078644416514402
 20
6.839678718287439
 30
0.0
 10
6.078644416514402
 20
6.839678718287439
 30
0.0
 10
6.078644416514402
 20
6.839678718287439
 30
0.0
 10
6.078278205335406
 20
6.840024584400934
 30
0.0
 10
6.078278205335406
 20
6.840024584400934
 30
0.0
 10
6.078278205335406
 20
6.840024584400934
 30
0.0
 10
6.077559346354414
 20
6.840390795579931
 30
0.0
 10
6.077559346354414
 20
6.840390795579931
 30
0.0
 10
6.077559346354414
 20
6.840390795579931
 30
0.0
 10
6.077233825306418
 20
6.840736661693427
 30
0.0
 10
6.077233825306418
 20
6.840736661693427
 30
0.0
 10
6.077233825306418
 20
6.840736661693427
 30
0.0
 10
6.075823234098433
 20
6.841435175608919
 30
0.0
 10
6.075823234098433
 20
6.841435175608919
 30
0.0
 10
6.075823234098433
 20
6.841435175608919
 30
0.0
 10
6.074765290692445
 20
6.841794605099415
 30
0.0
 10
6.074765290692445
 20
6.841794605099415
 30
0.0
  0
POLYLINE
  5
46B
330
466
100
AcDbEntity
  8
LAYER_1
 62
     7
100
AcDb2dPolyline
 66
     1
 10
0.0
 20
0.0
 30
0.0
  0
VERTEX
  5
46C
330
46B
100
AcDbEntity
  8
LAYER_1
 62
     7
100
AcDbVertex
100
AcDb2dVertex
 10
5.453942398655349
 20
7.770472246590588
 30
0.0
  0
VERTEX
  5
46D
330
46B
100
AcDbEntity
  8
LAYER_1
 62
     7
100
AcDbVertex
100
AcDb2dVertex
 10
6.001604435155259
 20
7.770472246590588
 30
0.0
  0
SEQEND
  5
46E
330
46B
100
AcDbEntity
  8
LAYER_1
  0
POLYLINE
  5
46F
330
466
100
AcDbEntity
  8
LAYER_1
 62
     7
100
AcDb2dPolyline
 66
     1
 10
0.0
 20
0.0
 30
0.0
  0
VERTEX
  5
470
330
46F
100
AcDbEntity
  8
LAYER_1
 62
     7
100
AcDbVertex
100
AcDb2dVertex
 10
6.084612302394335
 20
6.866405352665642
 30
0.0
  0
VERTEX
  5
471
330
46F
100
AcDbEntity
  8
LAYER_1
 62
     7
100
AcDbVertex
100
AcDb2dVertex
 10
6.084612302394335
 20
7.825688754356974
 30
0.0
  0
SEQEND
  5
472
330
46F
100
AcDbEntity
  8
LAYER_1
  0
POLYLINE
  5
473
330
466
100
AcDbEntity
  8
LAYER_1
 62
     7
100
AcDb2dPolyline
 66
     1
 10
0.0
 20
0.0
 30
0.0
  0
VERTEX
  5
474
330
473
100
AcDbEntity
  8
LAYER_1
 62
     7
100
AcDbVertex
100
AcDb2dVertex
 10
5.370934531416272
 20
7.375025208471485
 30
0.0
  0
VERTEX
  5
475
330
473
100
AcDbEntity
  8
LAYER_1
 62
     7
100
AcDbVertex
100
AcDb2dVertex
 10
5.370934531416272
 20
7.825688754356974
 30
0.0
  0
SEQEND
  5
476
330
473
100
AcDbEntity
  8
LAYER_1
  0
SPLINE
  5
477
330
466
100
AcDbEntity
  8
LAYER_1
 62
     7
100
AcDbSpline
210
0.0
220
0.0
230
1.0
 70
     8
 71
     3
 72
     8
 73
     4
 74
     0
 42
0.0000000001
 43
0.0000000001
 40
0.0
 40
0.0
 40
0.0
 40
0.0
 40
1.0
 40
1.0
 40
1.0
 40
1.0
 10
4.478328691056198
 20
6.765114053230768
 30
0.0
 10
4.439022024510636
 20
6.76314736356579
 30
0.0
 10
4.438954207625637
 20
6.716808086045805
 30
0.0
 10
4.478328691056198
 20
6.715173699117323
 30
0.0
  0
POLYLINE
  5
478
330
466
100
AcDbEntity
  8
LAYER_1
 62
     7
100
AcDb2dPolyline
 66
     1
 10
0.0
 20
0.0
 30
0.0
  0
VERTEX
  5
479
330
478
100
AcDbEntity
  8
LAYER_1
 62
     7
100
AcDbVertex
100
AcDb2dVertex
 10
4.574682921263126
 20
6.778121331773623
 30
0.0
  0
VERTEX
  5
47A
330
478
100
AcDbEntity
  8
LAYER_1
 62
     7
100
AcDbVertex
100
AcDb2dVertex
 10
4.589127917767966
 20
6.779884570783604
 30
0.0
  0
SEQEND
  5
47B
330
478
100
AcDbEntity
  8
LAYER_1
  0
POLYLINE
  5
47C
330
466
100
AcDbEntity
  8
LAYER_1
 62
     7
100
AcDb2dPolyline
 66
     1
 10
0.0
 20
0.0
 30
0.0
  0
VERTEX
  5
47D
330
47C
100
AcDbEntity
  8
LAYER_1
 62
     7
100
AcDbVertex
100
AcDb2dVertex
 10
4.574682921263126
 20
6.843890146845892
 30
0.0
  0
VERTEX
  5
47E
330
47C
100
AcDbEntity
  8
LAYER_1
 62
     7
100
AcDbVertex
100
AcDb2dVertex
 10
4.589127917767966
 20
6.842140471212911
 30
0.0
  0
SEQEND
  5
47F
330
47C
100
AcDbEntity
  8
LAYER_1
  0
ENDBLK
  5
469
330
466
100
AcDbEntity
  8
0
100
AcDbBlockEnd
  0
BLOCK
  5
48E
330
48C
100
AcDbEntity
  8
0
100
AcDbBlockBegin
  2
BLOCK_5
 70
     0
 71
     0
 10
0.0
 20
0.0
 30
0.0
  3
BLOCK_5
  1

  0
POLYLINE
  5
490
330
48C
100
AcDbEntity
  8
LAYER_1
 62
     7
100
AcDb2dPolyline
 66
     1
 10
0.0
 20
0.0
 30
0.0
  0
VERTEX
  5
491
330
490
100
AcDbEntity
  8
LAYER_1
 62
     7
100
AcDbVertex
100
AcDb2dVertex
 10
4.11040852655829
 20
8.635829262557964
 30
0.0
  0
VERTEX
  5
492
330
490
100
AcDbEntity
  8
LAYER_1
 62
     7
100
AcDbVertex
100
AcDb2dVertex
 10
4.751630737603159
 20
8.635829262557964
 30
0.0
  0
SEQEND
  5
493
330
490
100
AcDbEntity
  8
LAYER_1
  0
POLYLINE
  5
494
330
48C
100
AcDbEntity
  8
LAYER_1
 62
     7
100
AcDb2dPolyline
 66
     1
 10
0.0
 20
0.0
 30
0.0
  0
VERTEX
  5
495
330
494
100
AcDbEntity
  8
LAYER_1
 62
     7
100
AcDbVertex
100
AcDb2dVertex
 10
4.834638604842236
 20
8.340947883204244
 30
0.0
  0
VERTEX
  5
496
330
494
100
AcDbEntity
  8
LAYER_1
 62
     7
100
AcDbVertex
100
AcDb2dVertex
 10
4.834638604842236
 20
8.691038988635851
 30
0.0
  0
SEQEND
  5
497
330
494
100
AcDbEntity
  8
LAYER_1
  0
POLYLINE
  5
498
330
48C
100
AcDbEntity
  8
LAYER_1
 62
     7
100
AcDb2dPolyline
 66
     1
 10
0.0
 20
0.0
 30
0.0
  0
VERTEX
  5
499
330
498
100
AcDbEntity
  8
LAYER_1
 62
     7
100
AcDbVertex
100
AcDb2dVertex
 10
4.027048011517217
 20
8.340947883204244
 30
0.0
  0
VERTEX
  5
49A
330
498
100
AcDbEntity
  8
LAYER_1
 62
     7
100
AcDbVertex
100
AcDb2dVertex
 10
4.027048011517217
 20
8.691038988635851
 30
0.0
  0
SEQEND
  5
49B
330
498
100
AcDbEntity
  8
LAYER_1
  0
ENDBLK
  5
48F
330
48C
100
AcDbEntity
  8
0
100
AcDbBlockEnd
  0
BLOCK
  5
4AA
330
4A8
100
AcDbEntity
  8
0
100
AcDbBlockBegin
  2
BLOCK_6
 70
     0
 71
     0
 10
0.0
 20
0.0
 30
0.0
  3
BLOCK_6
  1

  0
POLYLINE
  5
4AC
330
4A8
100
AcDbEntity
  8
LAYER_1
 62
     7
100
AcDb2dPolyline
 66
     1
 10
0.0
 20
0.0
 30
0.0
  0
VERTEX
  5
4AD
330
4AC
100
AcDbEntity
  8
LAYER_1
 62
     7
100
AcDbVertex
100
AcDb2dVertex
 10
5.173112677873472
 20
7.331059521926474
 30
0.0
  0
VERTEX
  5
4AE
330
4AC
100
AcDbEntity
  8
LAYER_1
 62
     7
100
AcDbVertex
100
AcDb2dVertex
 10
5.173112677873472
 20
6.191430677956648
 30
0.0
  0
SEQEND
  5
4AF
330
4AC
100
AcDbEntity
  8
LAYER_1
  0
POLYLINE
  5
4B0
330
4A8
100
AcDbEntity
  8
LAYER_1
 62
     7
100
AcDb2dPolyline
 66
     1
 10
0.0
 20
0.0
 30
0.0
  0
VERTEX
  5
4B1
330
4B0
100
AcDbEntity
  8
LAYER_1
 62
     7
100
AcDbVertex
100
AcDb2dVertex
 10
4.840226716166174
 20
6.108416029029071
 30
0.0
  0
VERTEX
  5
4B2
330
4B0
100
AcDbEntity
  8
LAYER_1
 62
     7
100
AcDbVertex
100
AcDb2dVertex
 10
5.228342749016858
 20
6.108416029029071
 30
0.0
  0
SEQEND
  5
4B3
330
4B0
100
AcDbEntity
  8
LAYER_1
  0
POLYLINE
  5
4B4
330
4A8
100
AcDbEntity
  8
LAYER_1
 62
     7
100
AcDb2dPolyline
 66
     1
 10
0.0
 20
0.0
 30
0.0
  0
VERTEX
  5
4B5
330
4B4
100
AcDbEntity
  8
LAYER_1
 62
     7
100
AcDbVertex
100
AcDb2dVertex
 10
4.840226716166174
 20
7.414420036967547
 30
0.0
  0
VERTEX
  5
4B6
330
4B4
100
AcDbEntity
  8
LAYER_1
 62
     7
100
AcDbVertex
100
AcDb2dVertex
 10
5.228342749016858
 20
7.414420036967547
 30
0.0
  0
SEQEND
  5
4B7
330
4B4
100
AcDbEntity
  8
LAYER_1
  0
ENDBLK
  5
4AB
330
4A8
100
AcDbEntity
  8
0
100
AcDbBlockEnd
  0
BLOCK
  5
4C6
330
4C4
100
AcDbEntity
  8
0
100
AcDbBlockBegin
  2
BLOCK_7
 70
     0
 71
     0
 10
0.0
 20
0.0
 30
0.0
  3
BLOCK_7
  1

  0
POLYLINE
  5
4C8
330
4C4
100
AcDbEntity
  8
LAYER_1
 62
     7
100
AcDb2dPolyline
 66
     1
 10
0.0
 20
0.0
 30
0.0
  0
VERTEX
  5
4C9
330
4C8
100
AcDbEntity
  8
LAYER_1
 62
     7
100
AcDbVertex
100
AcDb2dVertex
 10
5.453942398655349
 20
7.556828713777463
 30
0.0
  0
VERTEX
  5
4CA
330
4C8
100
AcDbEntity
  8
LAYER_1
 62
     7
100
AcDbVertex
100
AcDb2dVertex
 10
5.82609433677721
 20
7.556828713777463
 30
0.0
  0
SEQEND
  5
4CB
330
4C8
100
AcDbEntity
  8
LAYER_1
  0
POLYLINE
  5
4CC
330
4C4
100
AcDbEntity
  8
LAYER_1
 62
     7
100
AcDb2dPolyline
 66
     1
 10
0.0
 20
0.0
 30
0.0
  0
VERTEX
  5
4CD
330
4CC
100
AcDbEntity
  8
LAYER_1
 62
     7
100
AcDbVertex
100
AcDb2dVertex
 10
5.909102204016287
 20
7.429197336208883
 30
0.0
  0
VERTEX
  5
4CE
330
4CC
100
AcDbEntity
  8
LAYER_1
 62
     7
100
AcDbVertex
100
AcDb2dVertex
 10
5.909102204016287
 20
7.612397869345846
 30
0.0
  0
SEQEND
  5
4CF
330
4CC
100
AcDbEntity
  8
LAYER_1
  0
POLYLINE
  5
4D0
330
4C4
100
AcDbEntity
  8
LAYER_1
 62
     7
100
AcDb2dPolyline
 66
     1
 10
0.0
 20
0.0
 30
0.0
  0
VERTEX
  5
4D1
330
4D0
100
AcDbEntity
  8
LAYER_1
 62
     7
100
AcDbVertex
100
AcDb2dVertex
 10
5.370934531416272
 20
7.375031990159985
 30
0.0
  0
VERTEX
  5
4D2
330
4D0
100
AcDbEntity
  8
LAYER_1
 62
     7
100
AcDbVertex
100
AcDb2dVertex
 10
5.370934531416272
 20
7.612397869345846
 30
0.0
  0
SEQEND
  5
4D3
330
4D0
100
AcDbEntity
  8
LAYER_1
  0
ENDBLK
  5
4C7
330
4C4
100
AcDbEntity
  8
0
100
AcDbBlockEnd
  0
BLOCK
  5
4E2
330
4E0
100
AcDbEntity
  8
0
100
AcDbBlockBegin
  2
BLOCK_8
 70
     0
 71
     0
 10
0.0
 20
0.0
 30
0.0
  3
BLOCK_8
  1

  0
SPLINE
  5
4E4
330
4E0
100
AcDbEntity
  8
LAYER_1
 62
     7
100
AcDbSpline
210
0.0
220
0.0
230
1.0
 70
    11
 71
     3
 72
    11
 73
     7
 74
     0
 42
0.0000000001
 43
0.0000000001
 40
0.0
 40
0.0
 40
0.0
 40
0.0
 40
1.0
 40
1.0
 40
1.0
 40
2.0
 40
2.0
 40
2.0
 40
2.0
 10
4.791018784410721
 20
6.230452513585214
 30
0.0
 10
4.790340615560728
 20
6.251604600016479
 30
0.0
 10
4.759931524327067
 20
6.252140353407973
 30
0.0
 10
4.758670130266081
 20
6.230452513585214
 30
0.0
 10
4.75960600327907
 20
6.208805363893455
 30
0.0
 10
4.790449122576727
 20
6.208927434286453
 30
0.0
 10
4.791018784410721
 20
6.230452513585214
 30
0.0
  0
SPLINE
  5
4E5
330
4E0
100
AcDbEntity
  8
LAYER_1
 62
     7
100
AcDbSpline
210
0.0
220
0.0
230
1.0
 70
    11
 71
     3
 72
    11
 73
     7
 74
     0
 42
0.0000000001
 43
0.0000000001
 40
0.0
 40
0.0
 40
0.0
 40
0.0
 40
1.0
 40
1.0
 40
1.0
 40
2.0
 40
2.0
 40
2.0
 40
2.0
 10
4.093155911014482
 20
6.230452513585214
 30
0.0
 10
4.092491305541489
 20
6.251604600016479
 30
0.0
 10
4.062095777684827
 20
6.252140353407973
 30
0.0
 10
4.060807256869841
 20
6.230452513585214
 30
0.0
 10
4.061743129882831
 20
6.208805363893455
 30
0.0
 10
4.092613375934488
 20
6.208927434286453
 30
0.0
 10
4.093155911014482
 20
6.230452513585214
 30
0.0
  0
SPLINE
  5
4E6
330
4E0
100
AcDbEntity
  8
LAYER_1
 62
     7
100
AcDbSpline
210
0.0
220
0.0
230
1.0
 70
    11
 71
     3
 72
    11
 73
     7
 74
     0
 42
0.0000000001
 43
0.0000000001
 40
0.0
 40
0.0
 40
0.0
 40
0.0
 40
1.0
 40
1.0
 40
1.0
 40
2.0
 40
2.0
 40
2.0
 40
2.0
 10
4.791018784410721
 20
7.292010559543908
 30
0.0
 10
4.790449122576727
 20
7.313569547285169
 30
0.0
 10
4.75960600327907
 20
7.313678054301167
 30
0.0
 10
4.758670130266081
 20
7.292010559543908
 30
0.0
 10
4.759931524327067
 20
7.270343064786649
 30
0.0
 10
4.790340615560728
 20
7.270872036489644
 30
0.0
 10
4.791018784410721
 20
7.292010559543908
 30
0.0
  0
SPLINE
  5
4E7
330
4E0
100
AcDbEntity
  8
LAYER_1
 62
     7
100
AcDbSpline
210
0.0
220
0.0
230
1.0
 70
    11
 71
     3
 72
    11
 73
     7
 74
     0
 42
0.0000000001
 43
0.0000000001
 40
0.0
 40
0.0
 40
0.0
 40
0.0
 40
1.0
 40
1.0
 40
1.0
 40
2.0
 40
2.0
 40
2.0
 40
2.0
 10
4.093155911014482
 20
7.292010559543908
 30
0.0
 10
4.092613375934488
 20
7.313569547285169
 30
0.0
 10
4.061743129882831
 20
7.313678054301167
 30
0.0
 10
4.060807256869841
 20
7.292010559543908
 30
0.0
 10
4.062095777684827
 20
7.270343064786649
 30
0.0
 10
4.092491305541489
 20
7.270872036489644
 30
0.0
 10
4.093155911014482
 20
7.292010559543908
 30
0.0
  0
ENDBLK
  5
4E3
330
4E0
100
AcDbEntity
  8
0
100
AcDbBlockEnd
  0
BLOCK
  5
522
330
520
100
AcDbEntity
  8
0
100
AcDbBlockBegin
  2
BLOCK_9
 70
     0
 71
     0
 10
0.0
 20
0.0
 30
0.0
  3
BLOCK_9
  1

  0
POLYLINE
  5
524
330
520
100
AcDbEntity
  8
LAYER_1
 62
     7
100
AcDb2dPolyline
 66
     1
 10
0.0
 20
0.0
 30
0.0
  0
VERTEX
  5
525
330
524
100
AcDbEntity
  8
LAYER_1
 62
     7
100
AcDbVertex
100
AcDb2dVertex
 10
5.008358337456304
 20
7.208995910616331
 30
0.0
  0
VERTEX
  5
526
330
524
100
AcDbEntity
  8
LAYER_1
 62
     7
100
AcDbVertex
100
AcDb2dVertex
 10
5.008358337456304
 20
6.31348072588979
 30
0.0
  0
SEQEND
  5
527
330
524
100
AcDbEntity
  8
LAYER_1
  0
POLYLINE
  5
528
330
520
100
AcDbEntity
  8
LAYER_1
 62
     7
100
AcDb2dPolyline
 66
     1
 10
0.0
 20
0.0
 30
0.0
  0
VERTEX
  5
529
330
528
100
AcDbEntity
  8
LAYER_1
 62
     7
100
AcDbVertex
100
AcDb2dVertex
 10
4.830406831218283
 20
6.230472858650714
 30
0.0
  0
VERTEX
  5
52A
330
528
100
AcDbEntity
  8
LAYER_1
 62
     7
100
AcDbVertex
100
AcDb2dVertex
 10
5.133019335461918
 20
6.230472858650714
 30
0.0
  0
SEQEND
  5
52B
330
528
100
AcDbEntity
  8
LAYER_1
  0
POLYLINE
  5
52C
330
520
100
AcDbEntity
  8
LAYER_1
 62
     7
100
AcDb2dPolyline
 66
     1
 10
0.0
 20
0.0
 30
0.0
  0
VERTEX
  5
52D
330
52C
100
AcDbEntity
  8
LAYER_1
 62
     7
100
AcDbVertex
100
AcDb2dVertex
 10
4.830406831218283
 20
7.292024122920909
 30
0.0
  0
VERTEX
  5
52E
330
52C
100
AcDbEntity
  8
LAYER_1
 62
     7
100
AcDbVertex
100
AcDb2dVertex
 10
5.133019335461918
 20
7.292024122920909
 30
0.0
  0
SEQEND
  5
52F
330
52C
100
AcDbEntity
  8
LAYER_1
  0
ENDBLK
  5
523
330
520
100
AcDbEntity
  8
0
100
AcDbBlockEnd
  0
ENDSEC
  0
SECTION
  2
ENTITIES
  0
INSERT
  5
3D
330
1F
100
AcDbEntity
  8
LAYER_1
100
AcDbBlockReference
  2
BLOCK_2
 10
0.0
 20
0.0
 30
0.0
  0
MTEXT
  5
53C
330
1F
100
AcDbEntity
  8
LAYER_1
 62
   152
100
AcDbMText
 10
4.321346165659944
 20
8.658995510473707
 30
0.0
 40
0.0661111547077448
 41
0.0
 71
     7
 72
     1
  1
\fFutura Condensed Medium|b0|i0|c0|p34;\W1;162 mm
  0
MTEXT
  5
53D
330
1F
100
AcDbEntity
  8
LAYER_1
 62
   152
100
AcDbMText
 10
4.321346165659944
 20
7.580286574298703
 30
0.0
 40
0.0661111547077448
 41
0.0
 71
     7
 72
     1
  1
\fFutura Condensed Medium|b0|i0|c0|p34;\W1;140 mm
  0
MTEXT
  5
53E
330
1F
100
AcDbEntity
  8
LAYER_1
 62
   152
100
AcDbMText
 10
5.603763460995683
 20
7.797870268130283
 30
0.0
 40
0.0661111547077448
 41
0.0
 71
     7
 72
     1
  1
\fFutura Condensed Medium|b0|i0|c0|p34;\W1;143 mm
  0
MTEXT
  5
53F
330
1F
100
AcDbEntity
  8
LAYER_1
 62
   152
100
AcDbMText
 10
5.515791397774661
 20
7.580286574298703
 30
0.0
 40
0.0661111547077448
 41
0.0
 71
     7
 72
     1
  1
\fFutura Condensed Medium|b0|i0|c0|p34;\W1;108 mm
  0
MTEXT
  5
540
330
1F
100
AcDbEntity
  8
LAYER_1
 62
   152
100
AcDbMText
 10
4.985368413441559
 20
6.633332282300233
 30
0.0
 40
0.0661111547077448
 41
0.0
 71
     7
 72
     1
  1
\fFutura Condensed Medium|b0|i0|c0|p34;\W1;213 mm
 11
-4.371139000186241E-8
 21
0.999999999999999
 31
0.0
  0
MTEXT
  5
541
330
1F
100
AcDbEntity
  8
LAYER_1
 62
   152
100
AcDbMText
 10
5.147410078458758
 20
6.633332282300233
 30
0.0
 40
0.0661111547077448
 41
0.0
 71
     7
 72
     1
  1
\fFutura Condensed Medium|b0|i0|c0|p34;\W1;262 mm
 11
-4.371139000186241E-8
 21
0.999999999999999
 31
0.0
  0
ENDSEC
  0
SECTION
  2
OBJECTS
  0
DICTIONARY
  5
C
330
0
100
AcDbDictionary
  3
ACAD_GROUP
350
D
  3
ACAD_LAYOUT
350
1A
  3
ACAD_MLINESTYLE
350
17
  3
ACAD_PLOTSETTINGS
350
19
  3
ACAD_TABLESTYLE
350
562
  3
ACAD_VISUALSTYLE
350
2A
  3
ACDBHEADERROUNDTRIPXREC
350
542
  0
DICTIONARY
  5
D
102
{ACAD_REACTORS
330
C
102
}
330
C
100
AcDbDictionary
  0
DICTIONARY
  5
1A
102
{ACAD_REACTORS
330
C
102
}
330
C
100
AcDbDictionary
  0
DICTIONARY
  5
17
102
{ACAD_REACTORS
330
C
102
}
330
C
100
AcDbDictionary
  3
STANDARD
350
18
  0
DICTIONARY
  5
19
102
{ACAD_REACTORS
330
C
102
}
330
C
100
AcDbDictionary
  0
DICTIONARY
  5
562
102
{ACAD_REACTORS
330
C
102
}
330
C
100
AcDbDictionary
  0
DICTIONARY
  5
2A
102
{ACAD_REACTORS
330
C
102
}
330
C
100
AcDbDictionary
  3
2DWIREFRAME
350
2F
  3
3DWIREFRAME
350
30
  3
3D_HIDDEN
350
31
  3
BASIC
350
32
  3
BRIGHTEN
350
36
  3
COLORCHANGE
350
3A
  3
CONCEPTUAL
350
34
  3
DIM
350
35
  3
FACEPATTERN
350
39
  3
FLAT
350
2B
  3
FLATWITHEDGES
350
2C
  3
GOURAUD
350
2D
  3
GOURAUDWITHEDGES
350
2E
  3
LINEPATTERN
350
38
  3
REALISTIC
350
33
  3
THICKEN
350
37
  0
DICTIONARY
  5
542
102
{ACAD_REACTORS
330
C
102
}
330
C
100
AcDbDictionary
  3
CEPSNTYPE
350
54B
  3
DIMSTYLEDATA
350
561
  3
FINGERPRINTGUID
350
54C
  3
HYPERLINKBASE
350
545
  3
INSUNITS
350
54A
  3
LAYOUTDICT
350
547
  3
LWETCUNION
350
549
  3
PLOTSETDICT
350
548
  3
PSVPSCALE
350
54E
  3
PUCSBASE
350
551
  3
PUCSORGBACK
350
557
  3
PUCSORGBOTTOM
350
553
  3
PUCSORGFRONT
350
556
  3
PUCSORGLEFT
350
554
  3
PUCSORGRIGHT
350
555
  3
PUCSORGTOP
350
552
  3
PUCSORTHOREF
350
54F
  3
PUCSORTHOVIEW
350
550
  3
STYLESHEET
350
546
  3
TSTACKALIGN
350
543
  3
TSTACKSIZE
350
544
  3
UCSBASE
350
55A
  3
UCSORGBACK
350
560
  3
UCSORGBOTTOM
350
55C
  3
UCSORGFRONT
350
55F
  3
UCSORGLEFT
350
55D
  3
UCSORGRIGHT
350
55E
  3
UCSORGTOP
350
55B
  3
UCSORTHOREF
350
558
  3
UCSORTHOVIEW
350
559
  3
VERSIONGUID
350
54D
  0
MLINESTYLE
  5
18
102
{ACAD_REACTORS
330
17
102
}
330
17
100
AcDbMlineStyle
  2
Standard
 70
     0
  3

 62
   256
 51
90.0
 52
90.0
 71
     2
 49
0.5
 62
   256
  6
BYLAYER
 49
-0.5
 62
   256
  6
BYLAYER
  0
VISUALSTYLE
  5
2F
102
{ACAD_REACTORS
330
2A
102
}
330
2A
100
AcDbVisualStyle
  2
2dWireframe
 70
     4
 71
     0
 72
     2
 73
     0
 90
        0
 40
-0.6
 41
-30.0
 62
     5
 63
     7
 74
     1
 91
        4
 64
     7
 65
   257
 75
     1
175
     1
 42
1.0
 92
        0
 66
   257
 43
1.0
 76
     1
 77
     6
 78
     2
 67
     7
 79
     5
170
     0
171
     0
290
     0
174
     0
 93
        1
 44
0.0
173
     0
291
     0
 45
0.0
1001
ACAD
1000
AcDbSavedByObjectVersion
1070
     0
  0
VISUALSTYLE
  5
30
102
{ACAD_REACTORS
330
2A
102
}
330
2A
100
AcDbVisualStyle
  2
3dWireframe
 70
     5
 71
     0
 72
     2
 73
     0
 90
        0
 40
-0.6
 41
-30.0
 62
     5
 63
     7
 74
     1
 91
        4
 64
     7
 65
   257
 75
     1
175
     1
 42
1.0
 92
        0
 66
   257
 43
1.0
 76
     1
 77
     6
 78
     2
 67
     7
 79
     5
170
     0
171
     0
290
     0
174
     0
 93
        1
 44
0.0
173
     0
291
     0
 45
0.0
1001
ACAD
1000
AcDbSavedByObjectVersion
1070
     0
  0
VISUALSTYLE
  5
31
102
{ACAD_REACTORS
330
2A
102
}
330
2A
100
AcDbVisualStyle
  2
3D Hidden
 70
     6
 71
     1
 72
     2
 73
     2
 90
        0
 40
-0.6
 41
-30.0
 62
     5
 63
     7
 74
     2
 91
        2
 64
     7
 65
   257
 75
     2
175
     1
 42
40.0
 92
        0
 66
   257
 43
1.0
 76
     1
 77
     6
 78
     2
 67
     7
 79
     3
170
     0
171
     0
290
     0
174
     0
 93
        1
 44
0.0
173
     0
291
     0
 45
0.0
1001
ACAD
1000
AcDbSavedByObjectVersion
1070
     0
  0
VISUALSTYLE
  5
32
102
{ACAD_REACTORS
330
2A
102
}
330
2A
100
AcDbVisualStyle
  2
Basic
 70
     7
 71
     1
 72
     0
 73
     1
 90
        0
 40
-0.6
 41
-30.0
 62
     5
 63
     7
 74
     0
 91
        4
 64
     7
 65
   257
 75
     1
175
     1
 42
1.0
 92
        8
 66
     7
 43
1.0
 76
     1
 77
     6
 78
     2
 67
     7
 79
     5
170
     0
171
     0
290
     0
174
     0
 93
        1
 44
0.0
173
     0
291
     1
 45
0.0
1001
ACAD
1000
AcDbSavedByObjectVersion
1070
     0
  0
VISUALSTYLE
  5
36
102
{ACAD_REACTORS
330
2A
102
}
330
2A
100
AcDbVisualStyle
  2
Brighten
 70
    12
 71
     2
 72
     2
 73
     0
 90
        0
 40
-0.6
 41
-30.0
 62
     5
 63
     7
 74
     1
 91
        4
 64
     7
 65
   257
 75
     1
175
     1
 42
1.0
 92
        8
 66
     7
 43
1.0
 76
     1
 77
     6
 78
     2
 67
     7
 79
     5
170
     0
171
     0
290
     0
174
     0
 93
        1
 44
50.0
173
     0
291
     1
 45
0.0
1001
ACAD
1000
AcDbSavedByObjectVersion
1070
     0
  0
VISUALSTYLE
  5
3A
102
{ACAD_REACTORS
330
2A
102
}
330
2A
100
AcDbVisualStyle
  2
ColorChange
 70
    16
 71
     2
 72
     2
 73
     3
 90
        0
 40
-0.6
 41
-30.0
 62
     5
 63
     8
 74
     1
 91
        4
 64
     7
 65
   257
 75
     1
175
     1
 42
1.0
 92
        8
 66
     8
 43
1.0
 76
     1
 77
     6
 78
     2
 67
     7
 79
     5
170
     0
171
     0
290
     0
174
     0
 93
        1
 44
0.0
173
     0
291
     1
 45
0.0
1001
ACAD
1000
AcDbSavedByObjectVersion
1070
     0
  0
VISUALSTYLE
  5
34
102
{ACAD_REACTORS
330
2A
102
}
330
2A
100
AcDbVisualStyle
  2
Conceptual
 70
     9
 71
     3
 72
     2
 73
     0
 90
        0
 40
-0.6
 41
-30.0
 62
     5
 63
     7
 74
     2
 91
        2
 64
     7
 65
   257
 75
     1
175
     1
 42
40.0
 92
        8
 66
     7
 43
1.0
 76
     1
 77
     6
 78
     2
 67
     7
 79
     3
170
     0
171
     0
290
     0
174
     0
 93
        1
 44
0.0
173
     0
291
     0
 45
0.0
1001
ACAD
1000
AcDbSavedByObjectVersion
1070
     0
  0
VISUALSTYLE
  5
35
102
{ACAD_REACTORS
330
2A
102
}
330
2A
100
AcDbVisualStyle
  2
Dim
 70
    11
 71
     2
 72
     2
 73
     0
 90
        0
 40
-0.6
 41
-30.0
 62
     5
 63
     7
 74
     1
 91
        4
 64
     7
 65
   257
 75
     1
175
     1
 42
1.0
 92
        8
 66
     7
 43
1.0
 76
     1
 77
     6
 78
     2
 67
     7
 79
     5
170
     0
171
     0
290
     0
174
     0
 93
        1
 44
-50.0
173
     0
291
     1
 45
0.0
1001
ACAD
1000
AcDbSavedByObjectVersion
1070
     0
  0
VISUALSTYLE
  5
39
102
{ACAD_REACTORS
330
2A
102
}
330
2A
100
AcDbVisualStyle
  2
Facepattern
 70
    15
 71
     2
 72
     2
 73
     0
 90
        0
 40
-0.6
 41
-30.0
 62
     5
 63
     7
 74
     1
 91
        4
 64
     7
 65
   257
 75
     1
175
     1
 42
1.0
 92
        8
 66
     7
 43
1.0
 76
     1
 77
     6
 78
     2
 67
     7
 79
     5
170
     0
171
     0
290
     0
174
     0
 93
        1
 44
0.0
173
     0
291
     1
 45
0.0
1001
ACAD
1000
AcDbSavedByObjectVersion
1070
     0
  0
VISUALSTYLE
  5
2B
102
{ACAD_REACTORS
330
2A
102
}
330
2A
100
AcDbVisualStyle
  2
Flat
 70
     0
 71
     2
 72
     1
 73
     1
 90
        2
 40
-0.6
 41
30.0
 62
     5
 63
     7
 74
     0
 91
        4
 64
     7
 65
   257
 75
     1
175
     1
 42
1.0
 92
        8
 66
     7
 43
1.0
 76
     1
 77
     6
 78
     2
 67
     7
 79
     5
170
     0
171
     0
290
     0
174
     0
 93
       13
 44
0.0
173
     0
291
     1
 45
0.0
1001
ACAD
1000
AcDbSavedByObjectVersion
1070
     0
  0
VISUALSTYLE
  5
2C
102
{ACAD_REACTORS
330
2A
102
}
330
2A
100
AcDbVisualStyle
  2
FlatWithEdges
 70
     1
 71
     2
 72
     1
 73
     1
 90
        2
 40
-0.6
 41
30.0
 62
     5
 63
     7
 74
     1
 91
        4
 64
     7
 65
   257
 75
     1
175
     1
 42
1.0
 92
        0
 66
   257
 43
1.0
 76
     1
 77
     6
 78
     2
 67
     7
 79
     5
170
     0
171
     0
290
     0
174
     0
 93
       13
 44
0.0
173
     0
291
     1
 45
0.0
1001
ACAD
1000
AcDbSavedByObjectVersion
1070
     0
  0
VISUALSTYLE
  5
2D
102
{ACAD_REACTORS
330
2A
102
}
330
2A
100
AcDbVisualStyle
  2
Gouraud
 70
     2
 71
     2
 72
     2
 73
     1
 90
        2
 40
-0.6
 41
30.0
 62
     5
 63
     7
 74
     0
 91
        4
 64
     7
 65
   257
 75
     1
175
     1
 42
1.0
 92
        0
 66
     7
 43
1.0
 76
     1
 77
     6
 78
     2
 67
     7
 79
     5
170
     0
171
     0
290
     0
174
     0
 93
       13
 44
0.0
173
     0
291
     1
 45
0.0
1001
ACAD
1000
AcDbSavedByObjectVersion
1070
     0
  0
VISUALSTYLE
  5
2E
102
{ACAD_REACTORS
330
2A
102
}
330
2A
100
AcDbVisualStyle
  2
GouraudWithEdges
 70
     3
 71
     2
 72
     2
 73
     1
 90
        2
 40
-0.6
 41
30.0
 62
     5
 63
     7
 74
     1
 91
        4
 64
     7
 65
   257
 75
     1
175
     1
 42
1.0
 92
        0
 66
   257
 43
1.0
 76
     1
 77
     6
 78
     2
 67
     7
 79
     5
170
     0
171
     0
290
     0
174
     0
 93
       13
 44
0.0
173
     0
291
     1
 45
0.0
1001
ACAD
1000
AcDbSavedByObjectVersion
1070
     0
  0
VISUALSTYLE
  5
38
102
{ACAD_REACTORS
330
2A
102
}
330
2A
100
AcDbVisualStyle
  2
Linepattern
 70
    14
 71
     2
 72
     2
 73
     0
 90
        0
 40
-0.6
 41
-30.0
 62
     5
 63
     7
 74
     1
 91
        4
 64
     7
 65
   257
 75
     7
175
     7
 42
1.0
 92
        8
 66
     7
 43
1.0
 76
     1
 77
     6
 78
     2
 67
     7
 79
     5
170
     0
171
     0
290
     0
174
     0
 93
        1
 44
0.0
173
     0
291
     1
 45
0.0
1001
ACAD
1000
AcDbSavedByObjectVersion
1070
     0
  0
VISUALSTYLE
  5
33
102
{ACAD_REACTORS
330
2A
102
}
330
2A
100
AcDbVisualStyle
  2
Realistic
 70
     8
 71
     2
 72
     2
 73
     0
 90
        0
 40
-0.6
 41
-30.0
 62
     5
 63
     7
 74
     1
 91
        0
 64
     7
 65
   257
 75
     1
175
     1
 42
1.0
 92
        8
 66
     8
 43
1.0
 76
     1
 77
     6
 78
     2
 67
     7
 79
     5
170
     0
171
     0
290
     0
174
     0
 93
       13
 44
0.0
173
     0
291
     0
 45
0.0
1001
ACAD
1000
AcDbSavedByObjectVersion
1070
     0
  0
VISUALSTYLE
  5
37
102
{ACAD_REACTORS
330
2A
102
}
330
2A
100
AcDbVisualStyle
  2
Thicken
 70
    13
 71
     2
 72
     2
 73
     0
 90
        0
 40
-0.6
 41
-30.0
 62
     5
 63
     7
 74
     1
 91
        4
 64
     7
 65
   257
 75
     1
175
     1
 42
1.0
 92
       12
 66
     7
 43
1.0
 76
     1
 77
     6
 78
     2
 67
     7
 79
     5
170
     0
171
     0
290
     0
174
     0
 93
        1
 44
0.0
173
     0
291
     1
 45
0.0
1001
ACAD
1000
AcDbSavedByObjectVersion
1070
     0
  0
XRECORD
  5
54B
102
{ACAD_REACTORS
330
542
102
}
330
542
100
AcDbXrecord
 90
        0
  0
XRECORD
  5
561
102
{ACAD_REACTORS
330
542
102
}
330
542
100
AcDbXrecord
1000
DSTYLE
1002
{
1070
   340
340
11
1002
}
  0
XRECORD
  5
54C
102
{ACAD_REACTORS
330
542
102
}
330
542
100
AcDbXrecord
  1
{2C42387F-FC11-141A-C77D-AF95F5F00709}
  0
XRECORD
  5
545
102
{ACAD_REACTORS
330
542
102
}
330
542
100
AcDbXrecord
  1

  0
XRECORD
  5
54A
102
{ACAD_REACTORS
330
542
102
}
330
542
100
AcDbXrecord
 90
        1
  0
XRECORD
  5
547
102
{ACAD_REACTORS
330
542
102
}
330
542
100
AcDbXrecord
340
1A
  0
XRECORD
  5
549
102
{ACAD_REACTORS
330
542
102
}
330
542
100
AcDbXrecord
 90
    10269
  0
XRECORD
  5
548
102
{ACAD_REACTORS
330
542
102
}
330
542
100
AcDbXrecord
340
19
  0
XRECORD
  5
54E
102
{ACAD_REACTORS
330
542
102
}
330
542
100
AcDbXrecord
 40
0.0
  0
XRECORD
  5
551
102
{ACAD_REACTORS
330
542
102
}
330
542
100
AcDbXrecord
340
0
  0
XRECORD
  5
557
102
{ACAD_REACTORS
330
542
102
}
330
542
100
AcDbXrecord
 10
0.0
 20
0.0
 30
0.0
  0
XRECORD
  5
553
102
{ACAD_REACTORS
330
542
102
}
330
542
100
AcDbXrecord
 10
0.0
 20
0.0
 30
0.0
  0
XRECORD
  5
556
102
{ACAD_REACTORS
330
542
102
}
330
542
100
AcDbXrecord
 10
0.0
 20
0.0
 30
0.0
  0
XRECORD
  5
554
102
{ACAD_REACTORS
330
542
102
}
330
542
100
AcDbXrecord
 10
0.0
 20
0.0
 30
0.0
  0
XRECORD
  5
555
102
{ACAD_REACTORS
330
542
102
}
330
542
100
AcDbXrecord
 10
0.0
 20
0.0
 30
0.0
  0
XRECORD
  5
552
102
{ACAD_REACTORS
330
542
102
}
330
542
100
AcDbXrecord
 10
0.0
 20
0.0
 30
0.0
  0
XRECORD
  5
54F
102
{ACAD_REACTORS
330
542
102
}
330
542
100
AcDbXrecord
340
0
  0
XRECORD
  5
550
102
{ACAD_REACTORS
330
542
102
}
330
542
100
AcDbXrecord
 70
     0
  0
XRECORD
  5
546
102
{ACAD_REACTORS
330
542
102
}
330
542
100
AcDbXrecord
  1

  0
XRECORD
  5
543
102
{ACAD_REACTORS
330
542
102
}
330
542
100
AcDbXrecord
 90
        1
  0
XRECORD
  5
544
102
{ACAD_REACTORS
330
542
102
}
330
542
100
AcDbXrecord
 90
       70
  0
XRECORD
  5
55A
102
{ACAD_REACTORS
330
542
102
}
330
542
100
AcDbXrecord
340
0
  0
XRECORD
  5
560
102
{ACAD_REACTORS
330
542
102
}
330
542
100
AcDbXrecord
 10
0.0
 20
0.0
 30
0.0
  0
XRECORD
  5
55C
102
{ACAD_REACTORS
330
542
102
}
330
542
100
AcDbXrecord
 10
0.0
 20
0.0
 30
0.0
  0
XRECORD
  5
55F
102
{ACAD_REACTORS
330
542
102
}
330
542
100
AcDbXrecord
 10
0.0
 20
0.0
 30
0.0
  0
XRECORD
  5
55D
102
{ACAD_REACTORS
330
542
102
}
330
542
100
AcDbXrecord
 10
0.0
 20
0.0
 30
0.0
  0
XRECORD
  5
55E
102
{ACAD_REACTORS
330
542
102
}
330
542
100
AcDbXrecord
 10
0.0
 20
0.0
 30
0.0
  0
XRECORD
  5
55B
102
{ACAD_REACTORS
330
542
102
}
330
542
100
AcDbXrecord
 10
0.0
 20
0.0
 30
0.0
  0
XRECORD
  5
558
102
{ACAD_REACTORS
330
542
102
}
330
542
100
AcDbXrecord
340
0
  0
XRECORD
  5
559
102
{ACAD_REACTORS
330
542
102
}
330
542
100
AcDbXrecord
 70
     0
  0
XRECORD
  5
54D
102
{ACAD_REACTORS
330
542
102
}
330
542
100
AcDbXrecord
  1
{FAEB1C32-E019-11D5-929B-00C0DF256EC4}
  0
ENDSEC
  0
EOF
